Lostprophets - Start Something Chords & Tabs

 

Start Something Chords & Tabs

Lostprophets Chords & Tabs

Version: 1 Type: Bass Tab 0 ratings
1 star 2 stars 3 stars 4 stars 5 stars
comments

Start Something Bass Tab

   
Band- Lostprophets
Song- Start Something

INTRO

G|---------|
D|---------|
A|---------|               X2
D|0000-00

G|------------------|
D|------------------|
A|----------1~------|
D|0000-0------------|      X1 And repeat that pattern until drum gradually come in

VERSE
(Start today…)
G|--------------------------------------------------|
D|--------------------------------------------------|         (TRUST ME, THIS IS RIGHT)
A|8-8---------------8-10----------------------------|
D|----8-8888888----------000000000------------------|

CHORUS
               (1234)
G|----------------------------------|
D|----------------------------------|
A|----------------------------------|
D|0--------0-00-0-00-000-000--------|
[ Tab from: http://www.guitartabs.cc/tabs/l/lostprophets/start_something_btab.html ]
G|--------------------------------------------------|
D|--------------------------------------------------|
A|--------------------------------------------------|
D|33333332222111100-00-00-11-11-11-11---------------|

G|-------------------------------------|
D|-------------------------------------|
A|-------------------------------------|
D|3333333222211110~---------0----------|

Then back to the verse
And then another chorus but after the last bit it goes slow and goes

G|-------------------------------------------------------------------------|
D|-------------------------------------------------------------------------|
A|------------------------------------------------1~-----------------------|
D|0~---------------1-1-1-0~-------------1-1-1-------------1-1-1-0~---------|
(END ON)
G|--------|
D|--------|
A|--------|
D|1-1-1
Comments