Lostprophets - Shinobi Vs Dragon Ninja Chords & Tabs

 

Shinobi Vs Dragon Ninja Chords & Tabs

Lostprophets Chords & Tabs

Version: 7 Type: Tab 0 ratings
1 star 2 stars 3 stars 4 stars 5 stars
comments

Shinobi Vs Dragon Ninja Tab

Im sorry but most of these tabs for this song to my opinion are horrible.
But what i think might be right may not be so.. here goes.. And this is
just really ghetto cuz its t frustrating making it nice and neat

Drop D tuning
Intro: Also Chorus..
-------------------------------------------------------------0r-----0r---------
-------------------------------------------------------------3r-----3r---------
---------------------------------------------0r------0r------0r-----0r---------
-------------------------------------------------------------------------------
-----8-7-------8-7-----8-7-------8-7//--333r----333r----555r---555r------------
-0-0-----0-0-0-----0-0-----0-0-0--------333r----333r----555r---555r------------
[ Tab from: http://www.guitartabs.cc/tabs/l/lostprophets/shinobi_vs_dragon_ninja_tab_ver_7.html ]
Verse: Palmed
-------------------------------------------------------------------------
-------------------------------------------------------------------------
-------------------------------------------------------------------------
-------------------------------------------------------------------------
--2-2-22-2-2-22--2-2-22-2-2-22--5-5-55-5-5-55--3-3-33-3-3-33-------------
--2-2-22-2-2-22--2-2-22-2-2-22--5-5-55-5-5-55--3-3-33-3-3-33-------------

This part not entirely sure but im sure i got the right notes
------------------------------5-------------
--6---6---6---6---6---6---6-----6---6---6---
----7---7---7---7---7---7---7-----7---7---7-
--------------------------------------------
--------------------------------------------
--------------------------------------------
The last part is pretty much same as intro just used with a phaser...

---------------------------------------------
---------------------------------------------
---------------------------------------------
---------------------------------------------
---------------------------------------------
-0-0-3-2-0-0-3-2-BLAH BLAH-------------------
Comments