Lostprophets - Shinobi Vs Dragon Ninja Chords & Tabs

 

Shinobi Vs Dragon Ninja Chords & Tabs

Lostprophets Chords & Tabs

Version: 3 Type: Tab 0 ratings
1 star 2 stars 3 stars 4 stars 5 stars
comments

Shinobi Vs Dragon Ninja Tab

This is the first tab that i have done so forgive me if its wrong.

Dropped D tuning (DADGBe)

Intro
-----------------------------------------------------------
-----------------------------------------------------------
-----------------------------------------------------------
-----------------------------------------------------------
-----------------------------------------------------------
--0-0-3-2-0-0-3-2-0-0-3-2-0-0-3-2-3-3-5-3-3-5-5-5-7-7-5-7-7

Chorus
-----------------------------------------------------------
-----------------------------------------------------------
-----------------------------------------------------------
--0-0-----0-0-----0-0-----0-0-----3-3---3-3---5-5---5-5----
--0-0-----0-0-----0-0-----0-0-----3-3---3-3---5-5---5-5----
--0-0-3-2-0-0-3-2-0-0-3-2-0-0-3-2-3-3-5-3-3-5-5-5-7-5-5-7--

Verse (palm muted)
-----------------------------------------------------------
-----------------------------------------------------------
-----------------------------------------------------------
-0-0-0-0-0-0-0-0-0-0-0-0-0-0-0-0-3-3-3-3-3-3-3-3-2-2-2-2-2-2-2-2
-0-0-0-0-0-0-0-0-0-0-0-0-0-0-0-0-3-3-3-3-3-3-3-3-2-2-2-2-2-2-2-2
-0-0-0-0-0-0-0-0-0-0-0-0-0-0-0-0-3-3-3-3-3-3-3-3-2-2-2-2-2-2-2-2

Pre Chorus
---------------------------------------------8---8---8----
---6---6---6---6----6----6----8----8----8-----------------
-----5---5---5---7----7----7----7----7----7----7---7---7--
----------------------------------------------------------
----------------------------------------------------------
----------------------------------------------------------
[ Tab from: http://www.guitartabs.cc/tabs/l/lostprophets/shinobi_vs_dragon_ninja_tab_ver_3.html ]
Ringing notes that happen after the 2nd verse and chorus
----------------------------------------------------------
----------------------------------------------------------
----------------------------------------------------------
--8----0----8----0----8-----------------------------------
--8----0----8----0----8-----------------------------------
--8----0----8----0----8-----------------------------------

Middle-you'll have to listen to the song for the rhythm but its not hard to get
----------------------------------------------------------
----------------------------------------------------------
----------------------------------------------------------
----------------------------------------------------------
----------------------------------------------------------
000000000000000000000000----------------------------------

Outro

----------------------------------------------------------
----------------------------------------------------------
----------------------------------------------------------
--0-0-3-2-0-0-3-2-0-0-3-2-0-0-3-2-0-0-3-2-0-0-3-2-0-0-3-2-
--0-0-3-2-0-0-3-2-0-0-3-2-0-0-3-2-0-0-3-2-0-0-3-2-0-0-3-2-
--0-0-3-2-0-0-3-2-0-0-3-2-0-0-3-2-0-0-3-2-0-0-3-2-0-0-3-2-

Last Time add this

-------
-------
-------
0-0-3-2
0-0-3-2
0-0-3-2

then the final palm muted bit

----------------------------------------------------------
----------------------------------------------------------
----------------------------------------------------------
-0-0-0-0-0-0-0-0-0-0--------------------------------------
-0-0-0-0-0-0-0-0-0-0--------------------------------------
-0-0-0-0-0-0-0-0-0-0--------------------------------------

Order

Intro X 1
Chorus X 2
Verse X 2
Pre Chorus X 2
Chorus X 2
Verse X 2
Pre Chorus X 2
Chorus X 2
Ringing Notes X ???
Middle X 2
Outro X 1

Comments or hate mail to andylinduschka@hotmail.com
Thanks
Lindy
Comments