Lostprophets - Shinobi Vs Dragon Ninja Chords & Tabs

 

Shinobi Vs Dragon Ninja Chords & Tabs

Lostprophets Chords & Tabs

Version: 1 Type: Tab 0 ratings
1 star 2 stars 3 stars 4 stars 5 stars
comments

Shinobi Vs Dragon Ninja Tab

   
ARTIST: LOST PROPHETS
SONG: SHINOBI VS DRAGON NINJA
ALBUM: THE FAKE SOUND OF PROGRESS
TABBED: STEVE OTTON ( CAMPDAVE )
TUNING: C, G, C, F, A, D


P.M  HEAVY PALM MUTE
p.m  LIGHT PALM MUTE

INTRO  CLEAN WITH EFFECTS
|--------------------------|---------------------------| 
|--------------------------|---------------------------| 
|--------------------------|---------------------------| 
|--------------------------|---------------------------| 
|--------------------------|---------------------------| 
|--0--0-15-14--0-0-0-15-14-|-0-0-0-15-14--0-0-0-15-14--| 

|------------------|-------------------| x2 
|------------------|-------------------| 
|-------0--------0-|-------7--------7--| 
|-------5--------5-|-------5--------5--|
|------------------|-5-5-5----5-5-5----| 
|-3-3-3----3-3-3---|-5-5-5----5-5-5----|

CHORUS - HEAVY DISTORTION
|--------------------------|---------------------------| 
|--------------------------|---------------------------| 
|--------------------------|---------------------------| 
|--------------------------|---------------------------| 
|--------------------------|---------------------------| 
|--0--0-15-14--0-0-0-15-14-|-0-0-0-15-14--0-0-0-15-14--| 
        p.m--        p.m--         p.m--        p.m

|------------------|-------------------| x2
|------------------|-------------------| 
|-------0--------0-|-------7--------7--| 
|-------5--------5-|-------5--------5--|
|------------------|-5-5-5----5-5-5----| 
|-3-3-3----3-3-3---|-5-5-5----5-5-5----|

VERSE
|-------------------------|-------------------------| 
|-------------------------|-------------------------| 
|-------------------------|-------------------------| 
|-------------------------|-------------------------| 
|-0--0--0-0--0--0--0-0-0--|-0--0--0-0--0--0--0-0-0--| 
|-0--0--0-0--0--0--0-0-0--|-0--0--0-0--0--0--0-0-0--| 
  P.M---------------------------------------------

|-------------------------|-------------------------| 
|-------------------------|-------------------------| x2
|-------------------------|-------------------------| 
|-------------------------|-------------------------| 
|-3--3--3-3--3--3--3-3-3--|-2--2--2-2--3--2--2-2-2--| 
|-3--3--3-3--3--3--3-3-3--|-2--2--2-2--3--2--2-2-2--|
  P.M---------------------------------------------



[ Tab from: http://www.guitartabs.cc/tabs/l/lostprophets/shinobi_vs_dragon_ninja_tab.html ]
|------------------------|------------------------| 
|------------------------|------------------------| 
|-10------10------10-----|-10------10------10-----| 
|-----10------10-----10--|-----12------12-----12--| 
|------------------------|------------------------| 
|------------------------|------------------------| 

|------------------------|---------------| 
|------------------------|---------------| 
|-10------14------10-----|-10-----10-----| 
|------------------------|---------------| 
|-----10------10-----10--|-----8------8--| 
|------------------------|---------------|

|------------------------|------------------------| 
|------------------------|------------------------| 
|-10------10------10-----|-10------10------10-----| 
|-----10------10-----10--|-----12------12-----12--| 
|------------------------|------------------------| 
|------------------------|------------------------| 

|------------------------|---------------| 
|------------------------|---------------| 
|-10------14------14-----|-14-----14-----| 
|------------------------|---------------| 
|-----10------10-----10--|-----8------8--| 
|------------------------|---------------|

CHORUS

VERSE

ENDING
GUITAR 1
|----------|---------|----------|---------|----------|       
|----------|---------|----------|---------|----------| 
|----------|---------|----------|---------|----------| 
|-10-------|-0-------|-10-------|-0-------|-10-------|  
|-8--------|-0-------|-8--------|-0-------|-8--------|
|-8--------|-0-------|-8--------|-0-------|-8--------| 

GUITAR 2
|-------------------------------|  
|-------------------------------|
|-10------10------10------------| 
|-----10------10-----10---------| 
|-------------------------------| 
|-------------------------------|

|-----------------------------------------------------|  ETC. U GET 
|-----------------------------------------------------| THE IDEA
|-----------------------------------------------------| 
|-----------------------------------------------------| 
|-----------------------------------------------------| 
|-0-0-0-0-0-0-0-0-0-0-0-0-0-0-0-0-0-0-0-0-0-0-0-0-----|






BOTH GUITARS
|----------------------|  AND SO ON!
|----------------------|
|----------------------|
|-0--0-3-2--0-0-0-3-2--|
|-0--0-3-2--0-0-0-3-2--|
|-0--0-3-2--0-0-0-3-2--|


|--------------------------|
|--------------------------|
|--------------------------|
|--------------------------|
|-0--0--0-0--0--0--0--0-0--|
|-0--0--0-0--0--0--0--0-0--|
  P.M--------------------
Comments