Lostprophets - Shinobi Vs Dragon Ninja Chords & Tabs

 

Shinobi Vs Dragon Ninja Chords & Tabs

Lostprophets Chords & Tabs

Version: 5 Type: Bass Tab 0 ratings
1 star 2 stars 3 stars 4 stars 5 stars
comments

Shinobi Vs Dragon Ninja Bass Tab

   
------------------------------------------------------------------------
		Shinobi vs. Dragon Ninja - lostprophets
------------------------------------------------------------------------

Tabbed By : N.J.D.
e-mail: lprophetsN8@comcast.net

Tuning: Normal (EADG)

NOTE: the "x13" or "x7" or xwhatever (x#) symbols below the lines were  
just meant to tell you how many times to play the note so you didnt 
have to squint to count them all.
Didn't want to cause any confusion on those.



  INTRO: x1
G|----------------------------------------------------------------------|
D|----------------------------------------------------------------------|
A|-2/10-----2/10--------------------------------------------------------|
E|----------------------------------------------------------------------|




  VERSE: x6
G|----------------------------------------------------------------------|
D|-----------------0-0-0-0-0-0-0-0--------------------------------------|
A|-3-3-3-3--------------------------------------------------------------|
E|---------3-3-3-3------------------------------------------------------|
     x4      x4          x8



  PRE-CHORUS: x1
G|----------------------------------------------------------------------|
D|----------------------------------------------------------------------|
A|-3333333333333333-222222222222-333------------------------------------|
E|----------------------------------------------------------------------|
	 x16	        x12	 x3



  cHORUS: x3
G|----------------------------------------------------------------------|
D|-0-000000-------------------------------------------------------------|
A|----------22222222-3333333333333333-----------------------------------|
E|----------------------------------------------------------------------|
     x7        x8         x13      



  POST-CHORUS: x1
G|----------------------------------------------------------------------|
D|-0-000000-------------------------------------------------------------|
A|----------22222222-3333333333333333-----------------------------------|
E|----------------------------------------------------------------------|
     x7        x8          x16



  INTERLUDE #1: x1
G|----------------------------------------------------------------------|
D|----------------------------------------------------------------------|
A|-2/10-----------------------------------------------------------------|
E|--------1/12---1/8----------------------------------------------------|




  VERSE: x4
G|----------------------------------------------------------------------|
D|-----------------0-0-0-0-0-0-0-0--------------------------------------|
A|-3-3-3-3--------------------------------------------------------------|
E|---------3-3-3-3------------------------------------------------------|
     x4      x4          x8


[ Tab from: http://www.guitartabs.cc/tabs/l/lostprophets/shinobi_vs_dragon_ninja_btab_ver_5.html ]
  PRE-CHORUS: x1
G|----------------------------------------------------------------------|
D|----------------------------------------------------------------------|
A|-3333333333333333-222222222222-333------------------------------------|
E|----------------------------------------------------------------------|
	 x16	        x12	 x3



  cHORUS: x3
G|----------------------------------------------------------------------|
D|-0-000000-------------------------------------------------------------|
A|----------22222222-3333333333333333-----------------------------------|
E|----------------------------------------------------------------------|
     x7        x8         x13      



  POST-CHORUS: x1
G|----------------------------------------------------------------------|
D|-0-000000-------------------------------------------------------------|
A|----------22222222-3333333333333333-----------------------------------|
E|----------------------------------------------------------------------|
     x7        x8          x16



  INTERLUDE #2: x1
G|----------------------------------------------------------------------|
D|----------------------------------------------------------------------|
A|-7\5---7775-----------------------------------------------------------|
E|------------1/8-------------------------------------------------------|




  BRIDGE 1st HALF: x1
G|----------------------------------------------------------------------|
D|------------5\4-0-----------------------------------------------------|
A|-77777777777-----333333333333-55-22222222222222223333333333333555-----|
E|----------------------------------------------------------------------|
      x11              x12      x2       x16           x13      x3



  BRIDGE 2nd HALF: x1
G|----------------------------------------------------------------------|
D|------------5\4-0-----------------------------------------------------|
A|-77777777777-----333333333333-55-2222222222222222333333333333333------|
E|----------------------------------------------------------------------|
      x11              x12      x2       x16            x15



  CHORUS: x3 
G|----------------------------------------------------------------------|
D|-0-000000-------------------------------------------------------------|
A|----------22222222-3333333333333333-----------------------------------|
E|----------------------------------------------------------------------|
     x7       x8          x16



  POST-CHORUS: x1 
G|----------------------------------------------------------------------|
D|-0-000000-------------------------------------------------------------|
A|----------22222222-33333333333333333----------------------------------|
E|----------------------------------------------------------------------|
     x7        x8          x17



  END ON: 
G|--------------------|
D|-0------------------|
A|--------------------|
E|--------------------|


Thats it. Just remember to play through all of the lines straight through. 
It really helps to listen to the song as you play to learn the rhythm of
the song. I really only concentrated on the notes. I am extremely 
confident in their accuracy. This is only my first tab, mind you!

PLEASE RATE THIS!


| /  slide up
| \  slide down
| h  hammer-on
| p  pull-off
| ~  vibrato
| +  harmonic
| x  Mute note
============================================================================
Comments