Lostprophets - Shinobi Vs Dragon Ninja Chords & Tabs

 

Shinobi Vs Dragon Ninja Chords & Tabs

Lostprophets Chords & Tabs

Version: 4 Type: Bass Tab 0 ratings
1 star 2 stars 3 stars 4 stars 5 stars
comments

Shinobi Vs Dragon Ninja Bass Tab

----------------------------------------------------------------------------
			Shinobi vs Dragon Ninja - Lostprophets
----------------------------------------------------------------------------

Tabbed By : Undaunted
e-mail: Bassman13@hotmail.com

Tuning: Drop C

  ^ = bend
  p = pull-off
  ~ = hold note

 -Rest

 -Intro x2
F|------------------------------------------------------------------0-----0|
C|---------------------------------------------------3-------3------5-----5|
G|-----8p7--------8p7--------8p7---------8p7-------------------------------|
C|0--0-----00-0---------00-0-------00-0--------33-3----33-3----55-5---55-5-|

 -Verse x2
F|--------------------------------------------------------------------------|
C|--------------------------------------------------------------------------|
G|--------------------------------------------------------------------------|
C|--0-0-00-0-0-000--0-0-00-0-0-000--3-3-33-3-3-333---2-2-22-2-2-222---------|

[ Tab from: http://www.guitartabs.cc/tabs/l/lostprophets/shinobi_vs_dragon_ninja_btab_ver_4.html ]
 -Chorus x2 (weird effect)
F|--------------------------------------------------------------------------|
C|---------------^-------------^--------------------------------------------|
G|----12---1212-12---12--1212-12----10--1010--10------15--1515--15----------|
C|--12--12---------12--12---------10--10----10------15--15-----15-----------|


  - Intro x2

  - Verse x2

  - Chorus x2

  - Intro x2


  - Break
F|--------------------------------------------------------------------------|
C|--------------------------------------------------------------------------|
G|--------------------------------------------------------------------------|
C|--8~---0~---------8~---0~----------8~---0---------------------------------|

  - Outro
F|-----------------------------------------------x4-------------------------|
C|--------------------------------------------------------------------------|
G|--------------------------------------------------------------------------|
C|--00-0-3p2----00-0-3p2----00-0-3p2----00-0-3p2------00-0-0-00-000---------|
Comments