Lostprophets - Shinobi Vs Dragon Ninja Chords & Tabs

 

Shinobi Vs Dragon Ninja Chords & Tabs

Lostprophets Chords & Tabs

Version: 3 Type: Bass Tab 0 ratings
1 star 2 stars 3 stars 4 stars 5 stars
comments

Shinobi Vs Dragon Ninja Bass Tab

Lost prophets

Intro     (repeat)
E|------------------------------------------------------------------------|
A|------------------------------------------------------------14-------18-|
D|------------------------------------------------------12-12----16-16----|
G|--9-9-9-12-11--9-9-9-12-11--9-9-9-12-11--9-9-9-12-11--------------------|
[ Tab from: http://www.guitartabs.cc/tabs/l/lostprophets/shinobi_vs_dragon_ninja_btab_ver_3.html ]
Verse
E|------------------------------------------------------------------------|
A|-------------------1-1-1-1-1-3-3-3-3------------------------------------|
D|--3-3-3-3-3-3-3-3-------------------------------------------------------|
G|------------------------------------------------------------------------|

the chorus has overdrive

chorus 
E|--3-3-3-3-3-3-3-3--2-2-2-2-2--5-5-5-5-5-5-|
A|-3-3-3-3-3-3-3-3--2-2-2-2-2--5-5-5-5-5-5--|
D|------------------------------------------|
G|------------------------------------------|

 -intro
 -verse
 -chorus

easy enough

DDDoo3
Comments