Lostprophets - Shinobi Vs Dragon Ninja Chords & Tabs

 

Shinobi Vs Dragon Ninja Chords & Tabs

Lostprophets Chords & Tabs

Version: 2 Type: Bass Tab 0 ratings
1 star 2 stars 3 stars 4 stars 5 stars
comments

Shinobi Vs Dragon Ninja Bass Tab

Artist:Lost Prophets
Song Title:Shinobi v.s dragon ninja
Tabbed by :Rodrigo Villanueva 

Intro:
G------------------------------------------------------------------------------/
D------------------------------------------------------------------------------/
A------------------------------------------------------------------------------/
E--3-3-6-5--3-3-3-6-5--3-3-3-6-5--3-3-3-3-6-5----------------------------------/

G-------10------10------12------12---------------------------------------------/
D------------------------------------------------------------------------------/
A--6-6-6---6-6-6---8-8-8---8-8-8-----------------------------------------------/
E------------------------------------------------------------------------------/

Then brake with a littles bit of distortion (overdrive).

G------------------------------------------------------------------------------/
D------------------------------------------------------------------------------/
A--3-3-6-5--3-3-3-6-5--3-3-3-6-5--3-3-3-3-6-5----------------------------------/
E------------------------------------------------------------------------------/
[ Tab from: http://www.guitartabs.cc/tabs/l/lostprophets/shinobi_vs_dragon_ninja_btab_ver_2.html ]
G-------10------10------12------12---------------------------------------------/
D------------------------------------------------------------------------------/
A--6-6-6---6-6-6---8-8-8---8-8-8-----------------------------------------------/
E------------------------------------------------------------------------------/

Verse(2x):
G------------------------------------------------------------------------------/
D-------------------------------------1-1-1-1-1-1-1-1-1-0-0-0-0-0-0-1-0--------/
A--3-3-3-3-3-3-3-3-3-3-3-3-3-3-3-3-3-3---------------------------------3-------/
E------------------------------------------------------------------------------/

Prechorus(2x)("and i sit and wonder..."):
G---3--3--3--5--5--5--3--3--3--2--2--2-----------------------------------------/
D--3--3--3--5--5--5--3--3--3--2--2--2------------------------------------------/
A------------------------------------------------------------------------------/
E------------------------------------------------------------------------------/

Intro(2x)
Verse(2x)
Prechorus(2x)
Intro(2x)

Guitar solo

Outro1(8x)
G------------------------------------------------------------------------------/
D------------------------------------------------------------------------------/
A--3-3-6-5---------------------------------------------------------------------/
E------------------------------------------------------------------------------/

Outro2(1x)
G------------------------------------------------------------------------------/
D------------------------------------------------------------------------------/
A--3-3-3-3-3-3-3-3-3-----------------------------------------------------------/
E------------------------------------------------------------------------------/
Comments