Lostprophets - Shinobi Vs Dragon Ninja Chords & Tabs

 

Shinobi Vs Dragon Ninja Chords & Tabs

Lostprophets Chords & Tabs

Version: 1 Type: Bass Tab 0 ratings
1 star 2 stars 3 stars 4 stars 5 stars
comments

Shinobi Vs Dragon Ninja Bass Tab

Artist: Lost Prophets
Track: Shinobi VS Dragon Ninja
Tabber: Nimrod boy 

Intro + Chorus

G|--------------------------------------------------------------------5--------5---------7-------7-
D|-------------------------------------------------------------3-3-3---3-3-3---5-5-5---5-5-5-------
A|---3-3-6-5----3-3-3-6-5----3-3-3-6-5----3-3-3-6-5------------------------------------------------
E|-------------------------------------------------------------------------------------------------

 (Got it all to high, got it figured out....)
G|-------------------------------------------------
D|-------------------------------------------------
A|--3-3-3-33-3--3-3-3-33-3--6-6-6-66-6--5-5-5-55-5-
E|-------------------------------------------------
[ Tab from: http://www.guitartabs.cc/tabs/l/lostprophets/shinobi_vs_dragon_ninja_btab.html ]
 (and i sit and wonder...)
G|---5---5---5---7---7---7---5---5---5---7---7---7--------
D|-3---3---3---5---5---5---3---3---3---5---5---5----------
A|--------------------------------------------------------
E|--------------------------------------------------------

Heavy Distorted bit
G|--------------------------------------------------------
D|--------------------------------------------------------
A|---3--------6----5--------3--------6----5---------------
E|--------------------------------------------------------

Outro

G|----------------------------------------------------|-----------------
D|----------------------------------------------------|-----------------
A|---3-3-6-5----3-3-3-6-5----3-3-3-6-5-----3-3-3-6-5--|------3-3-3-33-3-
E|----------------------------------------------------|-----------------

I think its right! E-mail me if not! feeder_guy_uk@yahoo.co.uk
Comments