Lostprophets - Seasonz Chords & Tabs

 

Seasonz Chords & Tabs

Lostprophets Chords & Tabs

Version: 1 Type: Tab 0 ratings
1 star 2 stars 3 stars 4 stars 5 stars
comments

Seasonz Tab

Band- Lostprophets
Song- Seasonz

Tuning: Standard

Intro

1------------------------------------|
2------------------------------------|
3------------------------------------|
4------------------------------------|
5------------------------------------|
6--2-2-2-4-2-4-5-5-5-5p4-4-4-5p4-----|

Heavy part after intro

1------------------------------------|
2------------------------------------|
3------------------------------------|
4--4-4-4-6-4-6-7-7-7-7\6-6-6-7\6-----|
5--4-4-4-6-4-6-7-7-7-7\6-6-6-7\6-----|
6--2-2-2-4-2-4-5-5-5-5\4-4-4-5\4-----|

Pre verse

1--------------------------------------|
2--------------------------------------|
3--------0~~------------------0~~------|
4--4--4-------4-4-4-4-4-4--4-----------|
5--4----------4-4-4-4-4-4--------------|
6--2----------2-2-2-2-2-2----------3-3-|
PM            * * * *   *

Verse
[ Tab from: http://www.guitartabs.cc/tabs/l/lostprophets/seasonz_tab.html ]
1------------------------------------|------|
2------------------------------------|------|
3------------------------------------|------|
4------------------------------------|-4-4--|
5------------------------------------|------|
6--0-0-2-3-2-0-0-0-0-0-2-3-2-0-------|------|
PM * * * * * * * * * * * * * *

Pre chorus

1-----19----19----19-18-----19----19----18-21--|
2--17----17----17--------17----17----17--------|
3----------------------------------------------|
4----------------------------------------------|
5----------------------------------------------|
6----------------------------------------------|

1-------------------------|------------------------|
2-------------------------|------------------------|
3-------------------------|------------------------|
4--4-4--4-4---4-4-4-4--4--|--5~~-------------------|
5--4-4--4-4---4-4-4-4--4--|--5~~-------------------|
6--2-2--2-2---2-2-2-2--2--|--3~~-------------------|

Chorus

1------------------------------------|
2------------------------------------|
3------------------------------------|
4--4-4-4-6-4-6-7-7-7-7\6-6-6-7\6-----|
5--4-4-4-6-4-6-7-7-7-7\6-6-6-7\6-----|
6--2-2-2-4-2-4-5-5-5-5\4-4-4-5\4-----|

Pre verse

Verse

Pre chorus

Chorus

Interlude

1----------------------------|
2----------------------------|
3----------------------------|
4----4-5-2-5-4---------------|
5--4-------------------------|
6----------------------------|

Chorus
Comments