Lostprophets - Rooftops Chords & Tabs

 

Rooftops Chords & Tabs

Lostprophets Chords & Tabs

Version: 7 Type: Tab

Rooftops Tab

Ok, so yea, i like this song, and so i looked up the tabs for it, and Killswitch_mike's 
satisfy me.
Here is how i like to play it.  It could be difficult for bigger fingered people because 
is
a part where your fingers get crammed on the same fret, but i can do it, im sure you can too.
This song sounds as it starts with octaves and builds from that.  Hopefully this tab 
show up..the last couple of tabs i've submitted havent.  I'm just going to tab the 
because the
chorus is easy stuff and seems to be correct on other tabs.

have fun.


tuning -  DROP C

INTRO
		(16 times)
Beat-1           2           3           4
D|---------------------------------------------------|
A|--10-10-10-10-10-10-10-10-10-10-10-10-10-10-10-10--|
F|---X--X--X--X--X--X--X--X--X--X--X--X--X--X--X--X--|
C|---7--7--7--7--7--7--7--7--7--7--7--7--7--7--7--7--|
G|---------------------------------------------------|
C|---------------------------------------------------|

D|---------------------------------------------------|
A|--10-10-10-10-10-10-10-10-10-10-10-10-10-10-10-10--|
F|---X--X--X--X--X--X--X--X--X--X--X--X--X--X--X--X--|
C|---7--7--7--7--7--7--7--7--7--7--7--7--7--7--7--7--|
G|---9--9--9--9--9--9--9--9--9--9--9--9--9--9--9--9--|
C|---------------------------------------------------|

D|---------------------------------------------------|
A|--10-10-10-10-10-10-10-10-10-10-10-10-10-10-10-10--|
F|---9--9--9--9--9--9--9--9--9--9--9--9--9--9--9--9--|
C|---7--7--7--7--7--7--7--7--7--7--7--7--7--7--7--7--|
G|---0--0--0--0--0--0--0--0--0--0--0--0--0--0--0--0--|
C|---0--0--0--0--0--0--0--0--0--0--0--0--0--0--0--0--|

D|---7--7--7--7--7--7--7--7--7--7--7--7--7--7--7--7--|
A|--10-10-10-10-10-10-10-10-10-10-10-10-10-10-10-10--|
F|---9--9--9--9--9--9--9--9--9--9--9--9--9--9--9--9--|
C|---7--7--7--7--7--7--7--7--7--7--7--7--7--7--7--7--|
G|---7--7--7--7--7--7--7--7--7--7--7--7--7--7--7--7--|
C|---------------------------------------------------|

D|---7--7--7--7--7--7--7--7--7--7--7--7--7--7--7--7--|
A|--10-10-10-10-10-10-10-10-10-10-10-10-10-10-10-10--|
F|---9--9--9--9--9--9--9--9--9--9--9--9--9--9--9--9--|
C|---7--7--7--7--7--7--7--7--7--7--7--7--7--7--7--7--|
G|---9--9--9--9--9--9--9--9--9--9--9--9--9--9--9--9--|
C|---------------------------------------------------|

 					 When  our
D|---7--7--7--7--7--7--7--7--7--7--7--7--7--7--7--7--|
A|---9--9--9--9--9--9--9--9--9--9--9--9--9--9--9--9--|
F|---9--9--9--9--9--9--9--9--9--9--9--9--9--9--9--9--|
C|---7--7--7--7--7--7--7--7--7--7--7--7--7--7--7--7--|
G|---9--9--9--9--9--9--9--9--9--9--9--9--9--9--9--9--|
C|---------------------------------------------------|
[ Tab from: http://www.guitartabs.cc/tabs/l/lostprophets/rooftops_tab_ver_7.html ]
Verse
    Time..................is.......................
D|---7--7--7--7--7--7--7--7--7--7--7--7--7--7--7--7--|
A|--10-10-10-10-10-10-10-10-10-10-10-10-10-10-10-10--|
F|---9--9--9--9--9--9--9--9--9--9--9--9--9--9--9--9--|
C|---7--7--7--7--7--7--7--7--7--7--7--7--7--7--7--7--|
G|---0--0--0--0--0--0--0--0--0--0--0--0--0--0--0--0--|
C|---0--0--0--0--0--0--0--0--0--0--0--0--0--0--0--0--|

    Up...................................When  our
D|---7--7--7--7--7--7--7--7--7--7--7--7--7--7--7--7--|
A|--10-10-10-10-10-10-10-10-10-10-10-10-10-10-10-10--|
F|---9--9--9--9--9--9--9--9--9--9--9--9--9--9--9--9--|
C|---7--7--7--7--7--7--7--7--7--7--7--7--7--7--7--7--|
G|---7--7--7--7--7--7--7--7--7--7--7--7--7--7--7--7--|
C|---------------------------------------------------|
    Lives.................are......................
D|---7--7--7--7--7--7--7--7--7--7--7--7--7--7--7--7--|
A|--10-10-10-10-10-10-10-10-10-10-10-10-10-10-10-10--|
F|---9--9--9--9--9--9--9--9--9--9--9--9--9--9--9--9--|
C|---7--7--7--7--7--7--7--7--7--7--7--7--7--7--7--7--|
G|---9--9--9--9--9--9--9--9--9--9--9--9--9--9--9--9--|
C|---------------------------------------------------|
    Done.................................Will  we
D|---7--7--7--7--7--7--7--7--7--7--7--7--7--7--7--7--|
A|---9--9--9--9--9--9--9--9--9--9--9--9--9--9--9--9--|
F|---9--9--9--9--9--9--9--9--9--9--9--9--9--9--9--9--|
C|---7--7--7--7--7--7--7--7--7--7--7--7--7--7--7--7--|
G|---9--9--9--9--9--9--9--9--9--9--9--9--9--9--9--9--|
C|---------------------------------------------------|
    Say...................we've ...................
D|---7--7--7--7--7--7--7--7--7--7--7--7--7--7--7--7--|
A|--10-10-10-10-10-10-10-10-10-10-10-10-10-10-10-10--|
F|---9--9--9--9--9--9--9--9--9--9--9--9--9--9--9--9--|
C|---7--7--7--7--7--7--7--7--7--7--7--7--7--7--7--7--|
G|---0--0--0--0--0--0--0--0--0--0--0--0--0--0--0--0--|
C|---0--0--0--0--0--0--0--0--0--0--0--0--0--0--0--0--|

    Had..................................our
D|---7--7--7--7--7--7--7--7--7--7--7--7--7--7--7--7--|
A|--10-10-10-10-10-10-10-10-10-10-10-10-10-10-10-10--|
F|---9--9--9--9--9--9--9--9--9--9--9--9--9--9--9--9--|
C|---7--7--7--7--7--7--7--7--7--7--7--7--7--7--7--7--|
G|---7--7--7--7--7--7--7--7--7--7--7--7--7--7--7--7--|
C|---------------------------------------------------|

    Fun............................................
D|---7--7--7--7--7--7--7--7--7--7--7--7--7--7--7--7--|
A|--10-10-10-10-10-10-10-10-10-10-10-10-10-10-10-10--|
F|---9--9--9--9--9--9--9--9--9--9--9--9--9--9--9--9--|
C|---7--7--7--7--7--7--7--7--7--7--7--7--7--7--7--7--|
G|---9--9--9--9--9--9--9--9--9--9--9--9--9--9--9--9--|
C|---------------------------------------------------|


D|---7--7--7--7--7--7--7--7--7--7--7--7--7--7--7--7--|
A|---9--9--9--9--9--9--9--9--9--9--9--9--9--9--9--9--|
F|---9--9--9--9--9--9--9--9--9--9--9--9--9--9--9--9--|
C|---7--7--7--7--7--7--7--7--7--7--7--7--7--7--7--7--|
G|---9--9--9--9--9--9--9--9--9--9--9--9--9--9--9--9--|
C|---------------------------------------------------|

Etc... i think you get the point by now.. its not all too hard.. good luck :)
any questions or comments email Brianadams12@hotmail.com,
subject- "lostprophets" or "guitar tabs"... something that i would actually open instead 
deleting.