Lostprophets - Rooftops Chords & Tabs

 

Rooftops Chords & Tabs

Lostprophets Chords & Tabs

Version: 1 Type: Tab

Rooftops Tab

   
Band - Lostprophets

Song - Rooftops (Brand New Single In Stores 19th June 2006)

Album - Liberation Transmission (Brand New Album In Stores 26th June 2006)

Transcribed By - Killswitch_mike

Version 1.0 - 18/05/06

Tuning - Dropped C - Low To High - C-G-C-F-A-D

Ok just heard this amazing song, thought I would have a go at it, have a rough plan of how it goes...

Intro; 

- Clean Guitar, Strum These Chords - Volume Knob 25% open -

D||---------------------------------------------||----|
A||---------------------------------------------||    |
F||-14-14-14-14-14-14-14-14-14-14-14-14-14-14---||    |
C||-14-14-14-14-14-14-14-14-14-14-14-14-14-14---||    |
G||-12-12-12-12-12-12-12-12-12-12-12-12-12-12---||    |
C||---------------------------------------------||    |
                                                      |
D||---------------------------------------------||    |
A||---------------------------------------------||    |
F||-14-14-14-14-14-14-14-14-14-14-14-14-14-14---||    |
C||-14-14-14-14-14-14-14-14-14-14-14-14-14-14---||    |
G||-11-11-11-11-11-11-11-11-11-11-11-11-11-11---||    |
C||---------------------------------------------||    |
                                                       - Repeat All Of This
D||---------------------------------------------||    |  For Verse
A||---------------------------------------------||    |
F||-14-14-14-14-14-14-14-14-14-14-14-14-14-14---||    |
C||-14-14-14-14-14-14-14-14-14-14-14-14-14-14---||    |
G||-12-12-12-12-12-12-12-12-12-12-12-12-12-12---||    |
C||---------------------------------------------||    |
                                                      |
D||---------------------------------------------||    |
A||---------------------------------------------||    |
F||-14-14-14-14-14-14-14-14-14-14-14-14-14-14---||    |
C||-14-14-14-14-14-14-14-14-14-14-14-14-14-14---||    |
G||--9--9--9--9--9--9--9--9--9--9--9--9--9--9---||    |
C||---------------------------------------------||    |
                                                      |
D||---------------------------------------------||    |
A||---------------------------------------------||    |
F||-14-14-14-14-14-14-14-14-14-14-14-14-14-14---||    |
C||-14-14-14-14-14-14-14-14-14-14-14-14-14-14---||    |
G||--9--9--9--9--9--9--9--9--9--9--9--9--9--9---||    |
C||--0--0--0--0--0--0--0--0--0--0--0--0--0--0---||----|

Chorus;

- Distorted - 

D||-----------------------------------||---|
A||-----------------------------------|| |
F||-----------------------------------|| |
C||-0-0-0-0-0-0-0-0-2-2-2-4-4-4-7-7-7-|| |
G||-0-0-0-0-0-0-0-0-2-2-2-4-4-4-7-7-7-|| |
C||-0-0-0-0-0-0-0-0-2-2-2-4-4-4-7-7-7-|| |
                                          - Repeat Then Play One more Bar
D||-----------------------------------|| |
A||-----------------------------------|| |
F||-----------------------------------|| |
C||-0-0-0-0-0-0-0-0-2-2-2-4-4-4-2-2-2-|| |
G||-0-0-0-0-0-0-0-0-2-2-2-4-4-4-2-2-2-|| |
C||-0-0-0-0-0-0-0-0-2-2-2-4-4-4-2-2-2-||---|


Verse;

- Clean Guitar, Strum These Chords - Volume Knob 25% open -
[ Tab from: http://www.guitartabs.cc/tabs/l/lostprophets/rooftops_tab.html ]
D||---------------------------------------------||----|
A||---------------------------------------------||    |
F||-14-14-14-14-14-14-14-14-14-14-14-14-14-14---||    |
C||-14-14-14-14-14-14-14-14-14-14-14-14-14-14---||    |
G||-12-12-12-12-12-12-12-12-12-12-12-12-12-12---||    |
C||---------------------------------------------||    |
                                                      |
D||---------------------------------------------||    |
A||---------------------------------------------||    |
F||-14-14-14-14-14-14-14-14-14-14-14-14-14-14---||    |
C||-14-14-14-14-14-14-14-14-14-14-14-14-14-14---||    |
G||-11-11-11-11-11-11-11-11-11-11-11-11-11-11---||    |
C||---------------------------------------------||    |
                                                       - Repeat All Of This
D||---------------------------------------------||    |  For Verse
A||---------------------------------------------||    |
F||-14-14-14-14-14-14-14-14-14-14-14-14-14-14---||    |
C||-14-14-14-14-14-14-14-14-14-14-14-14-14-14---||    |
G||-12-12-12-12-12-12-12-12-12-12-12-12-12-12---||    |
C||---------------------------------------------||    |
                                                      |
D||---------------------------------------------||    |
A||---------------------------------------------||    |
F||-14-14-14-14-14-14-14-14-14-14-14-14-14-14---||    |
C||-14-14-14-14-14-14-14-14-14-14-14-14-14-14---||    |
G||--9--9--9--9--9--9--9--9--9--9--9--9--9--9---||    |
C||---------------------------------------------||    |
                                                      |
D||---------------------------------------------||    |
A||---------------------------------------------||    |
F||-14-14-14-14-14-14-14-14-14-14-14-14-14-14---||    |
C||-14-14-14-14-14-14-14-14-14-14-14-14-14-14---||    |
G||--9--9--9--9--9--9--9--9--9--9--9--9--9--9---||    |
C||--0--0--0--0--0--0--0--0--0--0--0--0--0--0---||----|


Chorus;

- Distorted - 
D||-----------------------------------||---|
A||-----------------------------------|| |
F||-----------------------------------|| |
C||-0-0-0-0-0-0-0-0-2-2-2-4-4-4-7-7-7-|| |
G||-0-0-0-0-0-0-0-0-2-2-2-4-4-4-7-7-7-|| |
C||-0-0-0-0-0-0-0-0-2-2-2-4-4-4-7-7-7-|| |
                                          - Repeat Then Play One more Bar
D||-----------------------------------|| |
A||-----------------------------------|| |
F||-----------------------------------|| |
C||-0-0-0-0-0-0-0-0-2-2-2-4-4-4-2-2-2-|| |
G||-0-0-0-0-0-0-0-0-2-2-2-4-4-4-2-2-2-|| |
C||-0-0-0-0-0-0-0-0-2-2-2-4-4-4-2-2-2-||---|


Solo;

- Clean - 

D||------------------------------------------------------------------------|
A||------------------------------------------------------------------------|
F||-14--16-16-16-16-16-16--18-18-18-18-18-18-18-18-18-18-18-18-18-18-18-18-|
C||-14--16-16-16-16-16-16--18-18-18-18-18-18-18-18-18-18-18-18-18-18-18-18-|
G||-12--14-14-14-14-14-14--16-16-16-16-16-16-16-14-14-14-14-14-12-14-14-14-|
C||--0---0--0--0--0--0--0---0--0--0--0--0--0--0--0--0--0--0--0--0--0--0--0-|
   |                                                              |
   |----------------------------Repeat----------------------------|


Chorus;

- Distorted - 

D||-----------------------------------||---|
A||-----------------------------------|| |
F||-----------------------------------|| |
C||-0-0-0-0-0-0-0-0-2-2-2-4-4-4-7-7-7-|| |
G||-0-0-0-0-0-0-0-0-2-2-2-4-4-4-7-7-7-|| |
C||-0-0-0-0-0-0-0-0-2-2-2-4-4-4-7-7-7-|| |
                                          - Repeat Then Play One more Bar
D||-----------------------------------|| |
A||-----------------------------------|| |
F||-----------------------------------|| |
C||-0-0-0-0-0-0-0-0-2-2-2-4-4-4-2-2-2-|| |
G||-0-0-0-0-0-0-0-0-2-2-2-4-4-4-2-2-2-|| |
C||-0-0-0-0-0-0-0-0-2-2-2-4-4-4-2-2-2-||---|

There You Go, It Isnt Perfect, Might Need Some Work, Anyway, Tell me What You Think!

Thanks,

Mike