Lostprophets - Politics Of Emotion Chords & Tabs

 

Politics Of Emotion Chords & Tabs

Lostprophets Chords & Tabs

Version: 1 Type: Tab 0 ratings
1 star 2 stars 3 stars 4 stars 5 stars
comments

Politics Of Emotion Tab

   
Track: The Politics Of Emotion
Album: Last Train Home Single

Tuning: D A D G B E

Intro

Use Delay effect

Guitar 2
1------------------|
2------------------|
3------------------| Repeat
4--14~~---10~~-----|
5--12~~---8-~~-----|
6------------------|

Piano in Intro (Background, listen for timing)

1--------------------------------------------------------------|
2--15-13-15-13-15-17-15-13--1513151315-17-13-15-17-15-13-1513--|
3--------------------------------------------------------------| Repeat
4--------------------------------------------------------------|
5--------------------------------------------------------------|
6--------------------------------------------------------------|

Guitar one (Before verse)

1--------------|
2--------------|
3--14~~--12~~--|
4--------------|
5--------------|
6--------------|

Verse


Guitar 2
1------------------|
2------------------|
3------------------| Repeat
4--14~~---10~~-----|
5--12~~---8-~~-----|
6------------------|

Chorus (Listen to song for rhythm)
[ Tab from: http://www.guitartabs.cc/tabs/l/lostprophets/politics_of_emotion_tab.html ]
1---------------------------------------|    |--------------------------------|
2---------------------------------------|    |--------------------------------|
3--9-9-9--99-9-\-7-7-\-5-5-55-----------| X2 |-----------------------14-14----|
4--9-9-9--99-9-\-7-7-\-5-5-55-0-0--5-5--|    |--10-10-10-1010-12-12-1414-14---|
5--7-7-7--77-7-\-5-5-\-3-3-33-0-0--5-5--|    |--8--8--8---8-8-10-10-1212-12---|
6-----------------------------0-0--5-5--|    |--------------------------------|

chorus cont'd

1-------------------------------------------------------------------|
2-------------------------------------------------------------------|
3-------------------------------------------------------------------|
4-17171717-15-14---10-10--10-10-10-10-0-0-0-0---9-9--10101010-1010--|
5-12121212-12-12---8--8---8--8--8--8--0-0-0-0---7-7--7-7-7-7--7-7---|
6-------------------------------------0-0-0-0---7-7--7-7-7-7--7-7---|

Back To Verse

Chorus

Acoustic part (Switch pickup to right-middle)

1---------------------------------------------|
2---------------------------------------------|
3--9-9-99-9-99-9-99-9-9-5-5-55-5-55-5-55-5-5--| Repeat Until end
4--9-9-99-9-99-9-99-9-9-5-5-55-5-55-5-55-5-5--|
5--7-7-77-7-77-7-77-7-7-3-3-33-3-33-3-33-3-3--|
6---------------------------------------------|
Comments