Lostprophets - Miles Away From Nowhere Chords & Tabs

 

Miles Away From Nowhere Chords & Tabs

Lostprophets Chords & Tabs

Version: 1 Type: Tab 0 ratings
1 star 2 stars 3 stars 4 stars 5 stars
comments

Miles Away From Nowhere Tab

Artist: Lost Prophets
Song: Miles Away From Nowhere
Album: Shinobi vs. Dragon Ninja Single
Tuning: One whole step down, then drop to c
Tabbed By: Tommi S.

Quite easy to tab... But there is always something wrong, so send comments and
corrections. Thanks.

Intro:

1:|--------------------|
2:|--------------------|
3:|--------------------|
4:|-----4-------4------|
5:|--------------------|
6:|--4-------0------2--|

Verse:

1:|------------------------0--------------|
2:|----------------------------0-------0--|
3:|--------------------------------0------| (Just change the order of the open
4:|-----4-------4-------------------------|  notes to get it sound right)
5:|---------------------------------------|
6:|--4-------0------2---------------------|

Chorus:
[ Tab from: http://www.guitartabs.cc/tabs/l/lostprophets/miles_away_from_nowhere_tab.html ]
1:|----------------------------|----------------------------|
2:|----------------------------|----------------------------|
3:|-------------2---2--2-------|--------------4---4--4------|
4:|--4---4--4---2---2--2---2---|---4---4--4---4---4--4---2--|
5:|--4---4--4---0---0--0---2---|---4---4--4---2---2--2---2--|
6:|--4---4--4--------------2---|---4---4--4--------------2--|

Bridge/Outro:

1:|----------------------------|---4---4--4---4---4--4---4--|
2:|--7---7--7---7---7--7---7---|---5---5--5---5---5--5---5--|
3:|--6---6--6---6---6--6---6---|---4---4--4---4---4--4---4--| Play this many
4:|--4---4--4---4---4--4---4---|---6---6--6---6---6--6---6--| times
5:|--4---4--4---4---4--4---4---|---7---7--7---7---7--7---7--|
6:|--4---4--4---4---4--4---4---|----------------------------|

Then:

1:|------|---4--|
2:|--7---|---5--|
3:|--6---|---4--|
4:|--4---|---6--|
5:|--4---|---7--|
6:|--4---|------|
Comments