Lostprophets - Lucky You Chords & Tabs

 

Lucky You Chords & Tabs

Lostprophets Chords & Tabs

Version: 1 Type: Tab 0 ratings
1 star 2 stars 3 stars 4 stars 5 stars
comments

Lucky You Tab

   
Lostprophets - Lucky You
Tabbed BY: Will Sharp
Tuning : DADGBE
Email: chimaira_tool@hotmail.com

This is all my own work, was a bitch to count the number of times 
stuff was played.  Any comments email me.  Its about 98% correct so
dont rip it off as ur own.


Verse
Guitar 1: (clean)

When you play this riff throughout the song, constantly play
the A string whilst doing the fingering.  Also, when the 7th
fret in hammered on from the 5th, the 7th is actually played.

This is also the case with the slides from the power chords
on the A,D and G strings where the 577 chord is played, not 
just 'slid', as well as the slide from the 3rd fret to 5th, 
again, the 5th fret is played.

I could have just not written them as slides but what you are
doing is actually sliding these notes but because the riff is 
so fast, the notes are actually being played.  
E|---------------------------------------------------------|
B|---------------------------------------------------------|
G|---------------------------------------------------------|
D|---------------------------------------------------------|
A|-0-0-0-5h7-7-7-0-0-0-0-5h7-7-7-0-0-0-0-5h7-7-7-0-0-0-0-5h|
D|---------------------------------------------------------|

E|---------------------------------------------------------|
B|---------------------------------------------------------|
G|------5/7------------------------------------------------|
D|------5/7------------------------------------------------|
A|7-7-7-3/5-7-7-7-0-0-0-0-5h7-7-7-0-0-0-0-5h7-7-7-0-0-0-0-5|
D|---------------------------------------------------------|

E|---------------------------------------------------------|
B|---------------------------------------------------------|
G|-------5/7-----------------------------------------------|
D|-------5/7-----------------------------------------------|
A|h7-7-7-3/5-7-7-7-0-0-0-0-5h7-7-7-0-0-0-0-5h7-7-7-0-0-0-0-|
D|---------------------------------------------------------|

E|---------------------------------------------------------|
B|---------------------------------------------------------|
G|--------5/7----------------------------------------------|
D|--------5/7----------------------------------------------|
A|5h7-7-7-3/5-7-7-7-0-0-0-0-5h7-7-7-0-0-0-0-5h7-7-7-0-0-0-0|
D|---------------------------------------------------------|

E|---------------------------------------------------------|
B|---------------------------------------------------------|
G|---------------------------------------------------------|
D|---------------------------------------------------------|
A|-5h7-7-7-3-3/5-5h-7-7-7-0--------------------------------|
D|---------------------------------------------------------|
This riff carries on throughout the song except for the fill
in an chorus.  When you reach the open A after the single 3rd
fret is played (just above), you go back to the beginning of
the riff but miss out one '0-0-0-0-5h7-7-7-' section.

The basic pattern to it is 3 'sliding power chords' then 1 
'sliding 3rd fret' on the A string with the '0-0-0-0-5h7-7-7'
played 3-4 times in between each of them.


Verse
Guitar 2: plays this to start and over the top of Guitar 1.
The chords played that ring are with distortion on.
E|---------------------------------------------------------|
B|---------------------------------------------------------|
G|---------5---------------5---------------5---------------|
D|-3-3-3-3-5-3-3-3-3-3-3-3-5-3-3-3-3-3-3-3-5-3-3-3-3-3-3-3-|
A|-3-3-3-3-3-3-3-3-3-3-3-3-3-3-3-3-3-3-3-3-3-3-3-3-3-3-3-3-|
D|-3-3-3-3---3-3-3-3-3-3-3---3-3-3-3-3-3-3---3-3-3-3-3-3-3-|

E|---------------------------------------------------------|
B|---------------------------------------------------------|
G|5-5-5-------------5~-------------------------------------|
D|5-5-5--0~---------5~-------------------5~----------------|
A|3-3-3--0~---------3~-------------------3~----------------|
D|-------0~------------------------------3~----------------|
  |Dont play slides|
E|---------------------------------------------------------|
B|---------------------------------------------------------|
G|------------------5~-------------------------------------|
D|-3-3~--0~---------5~-------------------5~----------------|
A|-3-3~--0~---------3~-------------------3~----------------|
D|-3-3~--0~------------------------------3~----------------|

E|---------------------------------------------------------|
B|---------------------------------------------------------|
G|------------------5~-------------------------------------|
D|-3-3~--0~---------5~-------------------5~----------------|
A|-3-3~--0~---------3~-------------------3~----------------|
D|-3-3~--0~------------------------------3~----------------|

E|---------------------------------------------------------|
B|---------------------------------------------------------|
G|------------------5~-------------------------------------|
D|-3-3~--0~---------5~-------------------5~----------------|
A|-3-3~--0~---------3~-------------------3~----------------|
D|-3-3~--0~------------------------------3~----------------|

E|---------------------------------------------------------|
B|---------------------------------------------------------|
G|------------------5~-------------------------------------|
D|-3-3~--0~---------5~-------------------------------------|
A|-3-3~--0~---------3~-------------------------------------|
D|-3-3~--0~------------------------------------------------|


Chorus:
Both Guitars
(notes in brackets can be played to keep timing right if 
 wanted)
E|---------------------------------------------------------|
B|---------------------------------------------------------|
G|---------5-5-5-5/7-7-7-7/9-9-9-9--3-(3-3)--7-7-7-7/9-9-9-|
D|-3-(3)---5-5-5-5/7-7-7-7/9-9-9-9--3-(3-3)--7-7-7-7/9-9-9-|
A|-3-(3)---3-3-3-3/5-5-5-5/7-7-7-7--1-(1-1)--5-5-5-5/7-7-7-|
D|-3-(3)---------------------------------------------------|

E|---------------------------------------------------------|
B|---------------------------------------------------------|
G|9/10-10-10-10--5-(5-5)--9-9-9-9/10-10-10-10/12-12-12-12--|
D|9/10-10-10-10--5-(5-5)--9-9-9-9/10-10-10-10/12-12-12-12--|
A|7/8--8--8--8---3-(3-3)--7-7-7-7/8--8--8--8-/10-10-10-10--|
D|---------------------------------------------------------|

E|---------------------------------------------------------|
B|---------------------------------------------------------|
G|-----------------------------5-5-5-5-5-5-5-5-5-5---------|
D|-0-0-2-2-3-3-3-3-3-3-3-3~----5-5-5-5-5-5-5-5-5-5----0-0-2|
A|-0-0-2-2-3-3-3-3-3-3-3-3~----3-3-3-3-3-3-3-3-3-3----0-0-2|
D|-0-0-2-2-3-3-3-3-3-3-3-3~---------------------------0-0-2|

E|---------------------------------------------------------|
B|---------------------------------------------------------|
G|----------------------5-5-5-5-5-5-5-5-5-5----------------|
D|-2-3-3-3-3-3-3-3-3~---5-5-5-5-5-5-5-5-5-5----0-0-2-2-3-3-|
A|-2-3-3-3-3-3-3-3-3~---3-3-3-3-3-3-3-3-3-3----0-0-2-2-3-3-|
D|-2-3-3-3-3-3-3-3-3~--------------------------0-0-2-2-3-3-|

E|---------------------------------------------------------|
B|---------------------------------------------------------|
G|-----------------5~--------------------------------------|
D|-3-3-3-3-3-3~----5~--------------------------------------|
A|-3-3-3-3-3-3~----3~--------------------------------------|
D|-3-3-3-3-3-3~--------------------------------------------|


Verse:
Guitar 1 then plays its riff from beginning while Guitar 2
also plays but quieter (Guitar 2 is actually playing on the 
same channel as Guitar 1) until they reach the distorted 
chords where volume is turned up (or on different channels)

Chorus is then repeated.
[ Tab from: http://www.guitartabs.cc/tabs/l/lostprophets/lucky_you_tab.html ]
Bridge:
Guitar 1: (distortion and palm muted)
(note the couplets with 4 spaces instead of 3 between them)
E|---------------------------------------------------------|
B|---------------------------------------------------------|
G|---------------------------------------------------------|
D|-0-0---0-0---0-0---0-0----0-0----------------------------|
A|-0-0---0-0---0-0---0-0----0-0----------------------------|
D|-0-0---0-0---0-0---0-0----0-0----------------------------|

Both Guitars:
(distorted an palm muted)
E|---------------------------------------------------------|
B|---------------------------------------------------------|
G|---------------------------------------------------------|
D|-0-0---0-0---0-0---0-0----2-2---3-3---3-3---3-3---3-3----|
A|-0-0---0-0---0-0---0-0----2-2---3-3---3-3---3-3---3-3----|
D|-0-0---0-0---0-0---0-0----2-2---3-3---3-3---3-3---3-3----|

E|---------------------------------------------------------|
B|---------------------------------------------------------|
G|---------------------------------------------------------|
D|3-3----3-3---3-3---3-3---3-3----3-3----0-0-0---0-0---0-0-|
A|3-3----3-3---3-3---3-3---3-3----3-3----0-0-0---0-0---0-0-|
D|3-3----3-3---3-3---3-3---3-3----3-3----0-0-0---0-0---0-0-|

E|---------------------------------------------------------|
B|---------------------------------------------------------|
G|---------------------------------------------------------|
D|--0-0---0-0----0-0-0---0-0---0-0---0-0---2-2---3-3---3-3-|
A|--0-0---0-0----0-0-0---0-0---0-0---0-0---2-2---3-3---3-3-|
D|--0-0---0-0----0-0-0---0-0---0-0---0-0---2-2---3-3---3-3-|

E|---------------------------------------------------------|
B|---------------------------------------------------------|
G|---------------------------------------------------------|
D|--3-3---3-3----3-3----3-3---3-3---3-3---3-3----3-3----0-0|
A|--3-3---3-3----3-3----3-3---3-3---3-3---3-3----3-3----0-0|
D|--3-3---3-3----3-3----3-3---3-3---3-3---3-3----3-3----0-0|

E|---------------------------------------------------------|
B|---------------------------------------------------------|
G|---------------------------------------------------------|
D|-0---0-0---0-0---0-0---0-0----0-0-0---0-0---0-0---0-0---2|
A|-0---0-0---0-0---0-0---0-0----0-0-0---0-0---0-0---0-0---2|
D|-0---0-0---0-0---0-0---0-0----0-0-0---0-0---0-0---0-0---2|

E|---------------------------------------------------------|
B|---------------------------------------------------------|
G|---------------------------------------------------------|
D|-2---3-3---3-3---3-3---3-3----3-3----3-3---3-3---3-3---3-|
A|-2---3-3---3-3---3-3---3-3----3-3----3-3---3-3---3-3---3-|
D|-2---3-3---3-3---3-3---3-3----3-3----3-3---3-3---3-3---3-|

E|---------------------------------------------------------|
B|---------------------------------------------------------|
G|---------------------------------------------------------|
D|3----3-3-------------------------------------------------|
A|3----3-3-------------------------------------------------|
D|3----3-3-------------------------------------------------|

Guitar 1 then plays this clean:
E|--5-5-5-5-5-5-5-5-5-5-5-5--------------------------------|
B|--3-3-3-3-3-3-3-3-3-3-3-3--------------------------------|
G|--0-0-0-0-0-0-0-0-0-0-0-0--------------------------------|
D|--4-4-4-4-4-4-4-4-4-4-4-4--------------------------------|
A|--5-5-5-5-5-5-5-5-5-5-5-5--------------------------------|
D|---------------------------------------------------------|


Verse:
Both Guitars (slightly distorted)
E|---------------------------------------------------------|
B|---------------------------------------------------------|
G|---------------------------------------------5-5-5-5-5-5-|
D|-0-0-0-0-0-0-0-0-0-0h2--3-3-3-3-3-3-3-3-3-3--5-5-5-5-5-5-|
A|-0-0-0-0-0-0-0-0-0-0h2--3-3-3-3-3-3-3-3-3-3--3-3-3-3-3-3-|
D|-0-0-0-0-0-0-0-0-0-0h2--3-3-3-3-3-3-3-3-3-3--------------|

E|---------------------------------------------------------|
B|---------------------------------------------------------|
G|-5-5-5---------------------------------------------------|
D|-5-5-5--5-5-5-5-5-5-5-5-5-5---0-0-0-0-0-0-0-0-0-0h2--3-3-|
A|-3-3-3--3-3-3-3-3-3-3-3-3-3---0-0-0-0-0-0-0-0-0-0h2--3-3-|
D|--------3-3-3-3-3-3-3-3-3-3---0-0-0-0-0-0-0-0-0-0h2--3-3-|

E|---------------------------------------------------------|
B|---------------------------------------------------------|
G|-----------------5-5-5-5-5-5-5-5-5-----------------------|
D|3-3-3-3-3-3-3-3--5-5-5-5-5-5-5-5-5--5-5-5-5-5-5-5-5-5-5--|
A|3-3-3-3-3-3-3-3--3-3-3-3-3-3-3-3-3--3-3-3-3-3-3-3-3-3-3--|
D|3-3-3-3-3-3-3-3---------------------3-3-3-3-3-3-3-3-3-3--|

E|---------------------------------------------------------|
B|---------------------------------------------------------|
G|----------------------------------------------------5-5-5|
D|-0-0---0-0---0-0---0-0---0h2---3-3-3-3-3-3-3-3-3-3--5-5-5|
A|-0-0---0-0---0-0---0-0---0h2---3-3-3-3-3-3-3-3-3-3--3-3-3|
D|-0-0---0-0---0-0---0-0---0h2---3-3-3-3-3-3-3-3-3-3-------|

E|---------------------------------------------------------|
B|---------------------------------------------------------|
G|-5-5-5-5-5-5/7--5-5-5-5-5-5------------------------------|
D|-5-5-5-5-5-5/7--5-5-5-5-5-5------------------------------|
A|-3-3-3-3-3-3/5--3-3-3-3-3-3------------------------------|
D|---------------------------------------------------------|


Guitar 1 then plays this until Guitar 2 reaches the palm muted
open strings an joins in with them:
E|---------------------------------------------------------|
B|-5-5-5-5-5-5-5-5-5-5-5-5-5-5-5---------------------------|
G|-5-5-5-5-5-5-5-5-5-5-5-5-5-5-5---------------------------|
D|-5-5-5-5-5-5-5-5-5-5-5-5-5-5-5---------------------------|
A|-3-3-3-3-3-3-3-3-3-3-3-3-3-3-3---------------------------|
D|---------------------------------------------------------|


Guitar 2 carries on with this riff:
E|---------------------------------------------------------|
B|---------------------------------------------------------|
G|---------------------------------------------5-5-5-5-5-5-|
D|-0-0-0-0-0-0-0-0-0-0h2--3-3-3-3-3-3-3-3-3-3--5-5-5-5-5-5-|
A|-0-0-0-0-0-0-0-0-0-0h2--3-3-3-3-3-3-3-3-3-3--3-3-3-3-3-3-|
D|-0-0-0-0-0-0-0-0-0-0h2--3-3-3-3-3-3-3-3-3-3--------------|

E|---------------------------------------------------------|
B|---------------------------------------------------------|
G|-5-5-5---------------------------------------------------|
D|-5-5-5--5-5-5-5-5-5-5-5-5-5---0-0---0h2---3-3-3-3----0-0-|
A|-3-3-3--3-3-3-3-3-3-3-3-3-3---0-0---0h2---3-3-3-3----0-0-|
D|--------3-3-3-3-3-3-3-3-3-3---0-0---0h2---3-3-3-3----0-0-|
			      |       Both Guitars

E|---------------------------------------------------------|
B|---------------------------------------------------------|
G|---------------------------------------------------------|
D|--0h2---3-3-3-3------------------------------------------|
A|--0h2---3-3-3-3------------------------------------------|
D|--0h2---3-3-3-3------------------------------------------|
		  |

Guitar 2 plays these quite quietly:
E|---------------------------------------------------------|
B|---------------------------------------------------------|
G|--/12-------12\10----------------------------------------|
D|-------------------------7-------------------------------|
A|---------------------------------------------------------|
D|---------------------------------------------------------|

Guitar 1 plays the starting riff but this time there is no 
single slide on the A string to the 3rd fret - it is just the
power chords and the slide up, the 577 are not played, just 
slid.
On the 4th repeated power chord, guitar 1 does this to end 
the riff:
(brackets = already played notes)
E|---------------------------------------------------------|
B|---------------------------------------------------------|
G|------(5/7)-5--------------------------------------------|
D|------(5/7)-5--------------------------------------------|
A|(7-7-7-3/5)-3--------------------------------------------|
D|---------------------------------------------------------|

Guitar 1 then plays this to end:
(Guitar 2 has stopped the sliding part an doesnt play 
anymore)				  	          X4
E|---------------------------------------------------------|
B|---------------------------------------------------------|
G|--5---10-------------------------------------------------|
D|--5---10--0----------------------------------------------|
A|--7---8---0----------------------------------------------|
D|----------0----------------------------------------------|

Thats it.  Ending is the best part - one of lostprophets best
endings. enjoy
Comments