Lostprophets - Last Train Home Chords & Tabs

 

Last Train Home Chords & Tabs

Lostprophets Chords & Tabs

Version: 6 Type: Tab 0 ratings
1 star 2 stars 3 stars 4 stars 5 stars
comments

Last Train Home Tab

drop down D tuning

Intro

e-----------------|        e----------|        e------------|
b-----------------|        b----------|        b------------|
g---------------16| x4     g-------16-| x4     g---------14-| x8
d------------17---|        d-----17---|        d------17----|
a---------15------|        a----------|        a------------|
e-----------------|        e---14-----|        e----0-------|

Verse

e------|-----------|-------|------|------|------|
b------|-----------|-------|------|------|------|
g---16-|x12 ----16-|x12-14-|x7-19-|x2-14-|x5-19-|x4
d---17-|--------17-|----17-|---17-|---17-|---17-|
a---15-|--------14-|----0--|---0--|---0--|---0--|
e------|--------14-|----0--|---0--|---0--|---0--|


Pre Chorus

e-----|-------|----|-------|
b--10-|----12-|--8-|----10-|
g--x--|x14-x--|--x-|x14-x--|
d--7--|----9--|--5-|----7--|
a-----|-------|----|-------|
e-----|-------|----|-------|


Bridge
[ Tab from: http://www.guitartabs.cc/tabs/l/lostprophets/last_train_home_tab_ver_6.html ]
e--0--|-------------------------------------------------------------|
b--8--|--------8-------------------8-----------8--------------------|
g--11-|x8---11---9----11---9---11-----9----11-----9-----11----9----9|
d-----|-------------------------------------------------------------|
a-----|-------------------------------------------------------------|
e-----|-------------------------------------------------------------|
                                 
e--------------------------------^----|-----------|-----------------|
b--------------------------------|----|-----------|-----------------|
g------------16----------------16|--16^--------16-|x4---------14----|
d-------17--------------17------------------17----|--------17-------|
a----15-------------------------------------------|-----------------|
e--------------------14------------------0--------|-----0-----------|


outro

e----------|-----------|-----------|-----------|----------|----------|
b----------|-----------|-----------|-----------|----------|----------|
g--16------|--16-------|--16-------|--14-------|--16------|--16------|
d--17------|--17-------|--17-------|--17-------|--17------|--17------|
a--15------|--14-------|--0--------|--0--------|--15------|--15------|
e----------|--14-------|--0--------|--0--------|----------|----------|
Comments