Lostprophets - Last Train Home Chords & Tabs

 

Last Train Home Chords & Tabs

Lostprophets Chords & Tabs

Version: 2 Type: Tab 0 ratings
1 star 2 stars 3 stars 4 stars 5 stars
comments

Last Train Home Tab

   
Tabbed by:Lewis Mitchell

I'm all most certain this is 100% correct


Drop d tunning (d,A,d,G,B,e)

Intro 1 - Clean
e|---------------------------------------------------------------------|
B|---------------------------------------------------------------------|
G|--------16-------16-------16-------16-------16-------16-------16-----|
D|-----17-------17-------17-------17-------17-------17-------17--------|
A|--15-------15-------15-------15--------------------------------------|
D|--------------------------------------14-------14-------14-----------|

e|---------------------------------------------------------------------|
B|---------------------------------------------------------------------|
G|--------16------16------16------16------16------14------14------14---|
D|-----17------17------17------17------17------17------17------17------|
A|---------------------------------------------------------------------|
D|--14-------0-------0-------0-------0-------0-------0-------0---------|

e|------------|
B|------------|
G|-------14---|
D|----17------|
A|------------|
D|--0---------|

	Chorus/Intro 2 - Distortion
e|---------------------------------------------------------------------|
B|---------------------------------------------------------------------|
G|-5-------------------------------------------------------------------|
D|-5-X16--2-----0-0--0-0-0--0-0-0--0-0-0--0-0-0--0-0-0--0-0-0--0-0-0---|
A|-3------2-X16-0-0--0-0-0--0-0-0--0-0-0--0-0-0--0-0-0--0-0-0--0-0-0---|
D|--------2-----0-0--0-0-0--0-0-0--0-0-0--0-0-0--0-0-0--0-0-0--0-0-0---|
[ Tab from: http://www.guitartabs.cc/tabs/l/lostprophets/last_train_home_tab_ver_2.html ]
	Verse - First Riff - Clean
e|---------------------------------------------------------------------|
B|---------------------------------------------------------------------|
G|--5~-----------------------------------------------------------------|
D|--5~---2~---5-5-5-5-5-5-5-5-5-5-5-5-5-5-5-5--0-0-0-0-0-0-0-0-0-0-0-0-|
A|--3~---2~---5-5-5-5-5-5-5-5-5-5-5-5-5-5-5-5--0-0-0-0-0-0-0-0-0-0-0-0-|
D|-------2~---5-5-5-5-5-5-5-5-5-5-5-5-5-5-5-5--0-0-0-0-0-0-0-0-0-0-0-0-|
	Continued...
e|---------------------------------------------------------------------|
B|---------------------------------------------------------------------|
G|---------------------------------------------------------------------|
D|--0-0-0-0------------------------------------------------------------|
A|--0-0-0-0------------------------------------------------------------|
D|--0-0-0-0------------------------------------------------------------|

	Verse - Clean
e|---------------------------------------------------------------------|
B|---------------------------------------------------------------------|
G|--5-5-5-5-5-5-5-5-5-5-5-5-5-5-5-5------------------------------------|
D|--5-5-5-5-5-5-5-5-5-5-5-5-5-5-5-5--2-2-2-2-2-2-2-2-2-2-2-2-2-2-2-2---|
A|--3-3-3-3-3-3-3-3-3-3-3-3-3-3-3-3--2-2-2-2-2-2-2-2-2-2-2-2-2-2-2-2---|
D|-----------------------------------2-2-2-2-2-2-2-2-2-2-2-2-2-2-2-2---|
Continued...
e|---------------------------------------------------------------------|
B|---------------------------------------------------------------------|
G|---------------------------------------------------------------------|
D|--5-5-5-5-5-5-5-5-5-5-5-5-5-5-5-5--0-0-0-0-0-0-0-0-0-0-0-0-0-0-0-0---|
A|--5-5-5-5-5-5-5-5-5-5-5-5-5-5-5-5--0-0-0-0-0-0-0-0-0-0-0-0-0-0-0-0---|
D|--5-5-5-5-5-5-5-5-5-5-5-5-5-5-5-5--0-0-0-0-0-0-0-0-0-0-0-0-0-0-0-0---|

	Pre-Chorus - Distortion
e|----------------------------------------|
B|----------------------------------------|
G|----------------------------------------|
D|--7--------10--------5--------0---------|
A|--7-X16----10-X16----5-X16----0-X16-----|
D|--7--------10--------5--------0---------|

	Chorus

	Verse - Clean
e|---------------------------------------------------------------------|
B|---------------------------------------------------------------------|
G|--16--------16--------16-------14-------16-------14------------------|
D|--17-X16----17-X16----17-X4----17-X4----17-X4----17-X4---------------|
A|--15---------X---------X--------X--------X--------X------------------|
D|------------14---------0--------0--------0--------0------------------|
Comments