Lostprophets - Last Summer Chords & Tabs

 

Last Summer Chords & Tabs

Lostprophets Chords & Tabs

Version: 5 Type: Tab 0 ratings
1 star 2 stars 3 stars 4 stars 5 stars
comments

Last Summer Tab

Lostprophets - Last Summer
Tabber: Will Sharp
Tuning: Drop D (EBGDAD)
Email: chimaira_tool@hotmail.com

Ok, heres the tab for Last Summer, im pretty sure this is accurate enough,
I put the odd bass riff an keyboard jingle in with sume of cos it sounds cool.
Im sure about the verse, not so much on the guitar 2's bridge bit but it sounds
good enough.

Questions, comments etc. email me.  Check out Wake Up (Make a Move) tab I did 2...



INTRO:
Guitar 1: (mute these strings with your 2 playing fingers around 10th/12th fret
	   on the B string and the 12th fret for the G string)
									x10
E|------------------------------------------------------------------------|
B|--x-x-x-12-(x)-10---x-x-x-x-x---x-10-(x)-12-----------------------------|
G|------------------x-----------x-----------------------------------------|
D|------------------------------------------------------------------------|
A|------------------------------------------------------------------------|
D|------------------------------------------------------------------------|

Guitar 2: comes in on Guitar 1's 2nd repeat (bracketed notes are quick delayed 
					     notes played on the keyboard)
E|---------------------------------------------3x-------------------------|
B|---------------------------------------------3x--------(15)-(13)-(12)---|
G|----------0~----0~----------------0~----0~---0x--------(12)-(12)-(12)---|
D|----------5--4--0~----------------5--4--0~------------------------------|
A|--7-7-7-------------------7-7-7-----------------------------------------|
D|------------------------------------------------------------------------|

E|----------------------------------------------------3x-3~---------------|
B|----------------------------------------------------3x-3~---------------|
G|---------0~-----0~--11/14\12-12~---------0~-----0~--0x-0~--11/14\12--12-|
D|---------5---4--0~-----------------------5---4--0~----------------------|
A|-7-7-7---------------------------7-7-7----------------------------------|
D|------------------------------------------------------------------------|

E|------------------------------------------------------------------------|
B|------------------------------------------------------------------------|
G|-11--11\9---------------------------------------------------------------|
D|------------------------------------------------------------------------|
A|------------------------------------------------------------------------|
D|------------------------------------------------------------------------|


VERSE:
Guitar 1:
		x11			      x7				x4
E|---------------|-------------|---------------|-----------------|---------------|
B|-----3-3-------|-----3-------|-----3-3-------|-----3-------3---|-----3-3-------|
G|---0-------0---|---0-----0---|---0-------0---|---0---0---0---0-|---0-------0---|
D|-5-------5---5-|-5-----5---5-|-5-------5---5-|-5-------5-------|-5-------5---5-|
A|---------------|-------------|---------------|-----------------|---------------|
D|---------------|-------------|---------------|-----------------|---------------|


Guitar 2: (lightly palm muted)
									 x4
E|------------------------------------------------------------------------|
B|------------------------------------------------------------------------|
G|--5-5-5-5-5-5-5-5-5-----------------7-7-7-7-7-7-7-7-7-7-7-7-7-7-7-7-7-7-|
D|--5-5-5-5-5-5-5-5-5-5-5-5-5-5-5-5-5-7-7-7-7-7-7-7-7-7-7-7-7-7-7-7-7-7-7-|
A|--3-3-3-3-3-3-3-3-3-5-5-5-5-5-5-5-5-5-5-5-5-5-5-5-5-5-5-5-5-5-5-5-5-5-5-|
D|--------------------5-5-5-5-5-5-5-5-------------------------------------|

Don't palm mute these, put on slight distortion: 
									 x2
E|------------------------------------------------------------------------|
B|------------------------------------------------------------------------|
G|--5~--------------------------------5~----------------------------------|
D|--5~----------------5~--------------5~----------------------------------|
A|--3~----------------5~--------------7~----------------------------------|
D|--------------------5~--------------------------------------------------|



PRE-CHORUS:
Both Guitars: (Palm Muted) (as you play the last few notes of this riff lift
	       the palm mute slightly, also the bracketed notes are optional
	       as they add bass an treble to the riff)
E|------------------------------------------------------------------------|
B|------------------------------------------------------------------------|
G|-(5-5-5-5-5-5-5-5-5-5-5-5-5-5-5-5)-(4-4-4-4-4-4-4-4-4-4-4-4-4-4-4-4)----|
D|--5-5-5-5-5-5-5-5-5-5-5-5-5-5-5-5---4-4-4-4-4-4-4-4-4-4-4-4-4-4-4-4-----|
A|--3-3-3-3-3-3-3-3-3-3-3-3-3-3-3-3---2-2-2-2-2-2-2-2-2-2-2-2-2-2-2-2-----|
D|-(0-0-0-0-0-0-0-0-0-0-0-0-0-0-0-0)-(0-0-0-0-0-0-0-0-0-0-0-0-0-0-0-0)----|



CHORUS:
Guitar 1								 x4
E|------------------------------------------------------------------------|
B|-----7-7----------------7-7--------------7-7-------------7-7------------|
G|-----7-7----------------7-7--------------7-7-------------7-7------------|
D|-----0-0----------------0-0--------------0-0-------------0-0------------|
A|-----5-5----------------5-5--------------5-5-------------5-5------------|
D|------------------------------------------------------------------------|

Guitar 2:								 x4
E|------------------------------------------------------------------------|
B|------------------------------------------------------------------------|
G|-7-7-7-7-7-7-7-7-7--4-4-4-4-4-4-4-4--5-5-5-5-5-5-5-5-5-5-5-5-5-5-5-5-5-5|
D|-7-7-7-7-7-7-7-7-7--4-4-4-4-4-4-4-4--5-5-5-5-5-5-5-5-5-5-5-5-5-5-5-5-5-5|
A|-5-5-5-5-5-5-5-5-5--2-2-2-2-2-2-2-2--3-3-3-3-3-3-3-3-3-3-3-3-3-3-3-3-3-3|
D|------------------------------------------------------------------------|



[ Tab from: http://www.guitartabs.cc/tabs/l/lostprophets/last_summer_tab_ver_5.html ]
BREAK: Guitar 1 repeats their intro riff, Guitar 2 plays this and could add
       this extra bit inbetween their riff to add to the bass riff ('cos it 
       is cool)

Guitar 2
E|------------------------------------------------------------------------|
B|--------------------------------------------------------------3x~-------|
G|----------0~----0~---------------------------------0~----0~---0x~-------|
D|----------5--4--0~---------------2~----------------5--4--0~---0X~-------|
A|--7-7-7------------------------------------7-7-7------------------------|
D|-----------------------2-0h2-2-2----------------------------------------|


The VERSE, PRE-CHORUS and CHORUS are then Repeated.

NOTE: for the second chorus it is possible for Guitar 2 to match the bass riff
      by cutting the longest power chord repeat down to 12 repeats, rather than
      the usual 16 repeats, and puting a slide to a higher power chord in: 

Guitar 2
E|------------------------------------------------------------------------|
B|------------------------------------------------------------------------|
G|-7-7-7-7-7-7-7-7-7--4-4-4-4-4-4-4-4--5-5-5-5-5-5-5-5-5-5-5-5/9-9-9-9----|
D|-7-7-7-7-7-7-7-7-7--4-4-4-4-4-4-4-4--5-5-5-5-5-5-5-5-5-5-5-5/9-9-9-9----|
A|-5-5-5-5-5-5-5-5-5--2-2-2-2-2-2-2-2--3-3-3-3-3-3-3-3-3-3-3-3/7-7-7-7----|
D|------------------------------------------------------------------------|


BREAK 2: Same as last time but the bass riff that is optional for Guitar 2 changes
         slightly:

Guitar 2
E|------------------------------------------------------------------------|
B|--------------------------------------------------------------3x~-------|
G|----------0~----0~---------------------------------0~----0~---0x~-------|
D|----------5--4--0~---------------------------------5--4--0~---0X~-------|
A|--7-7-7------------------------------------7-7-7------------------------|
D|-----------------------2-2-2-0~-----------------------------------------|



BRIDGE:
Guitar 1: (Guitar 2 doesnt play during this)

			    x3
E|------------------/15-14---|-/15-14----/15-14----/17-15----/19-15-------|
B|--/15-15----------------15-|--------15--------15--------15--------15----|
G|---------14-12-12----------|--------------------------------------------|
D|---------------------------|--------------------------------------------|
A|---------------------------|--------------------------------------------|
D|---------------------------|--------------------------------------------|

Guitar 2: (not !00% sure bout these as hard to hear)
E|-(0~)----0~-----0~-----0~-----------------------------------------------|
B|--0~-----0~-----0~-----0~-----------------------------------------------|
G|--4~-----4~-----0~-----5~------5-5-5-5-5-5-5-5--------------------------|
D|--4~-----2~-----5~-----5~------5-5-5-5-5-5-5-5--------------------------|
A|--2~-----2~-----5~-----3~------3-3-3-3-3-3-3-3--------------------------|
D|--2~-----0~-----0~-----0~-----------------------------------------------|



CHORUS:
Guitar 1:
			    x2		 x4
E|------------------/15-14---|-----------|--------------------------------|
B|--/15-15----------------15-|-15b17r15--|--------------------------------|
G|---------14-12-12----------|-----------|-14--14b16r14--14b16r14--12-----|
D|---------------------------|-----------|----------------------------16--|
A|---------------------------|-----------|--------------------------------|
D|---------------------------|-----------|--------------------------------|

					   x8 (hold the 15th on B to end)
E|-------------|------------------/15-14----|-----------------------------|
B|-------------|--/15-15----------------15--|-----------------------------|
G|-------------|---------14-12-12-----------|-----------------------------|
D|-14--16--12--|----------------------------|-----------------------------|
A|-------------|----------------------------|-----------------------------|
D|-------------|----------------------------|-----------------------------|


Guitar 2 repeats the optional chorus 2 riff:
									 x4
E|------------------------------------------------------------------------|
B|------------------------------------------------------------------------|
G|-7-7-7-7-7-7-7-7-7--4-4-4-4-4-4-4-4--5-5-5-5-5-5-5-5-5-5-5-5/9-9-9-9----|
D|-7-7-7-7-7-7-7-7-7--4-4-4-4-4-4-4-4--5-5-5-5-5-5-5-5-5-5-5-5/9-9-9-9----|
A|-5-5-5-5-5-5-5-5-5--2-2-2-2-2-2-2-2--3-3-3-3-3-3-3-3-3-3-3-3/7-7-7-7----|
D|------------------------------------------------------------------------|

Also possibel but a little tricky is to do this as there is still Guitar 1's
original overlay on the top of the last chorus while Guitar 1's lead is still 
being played:
									 x4
E|------------------------------------------------------------------------|
B|------7-7-----------7-7-----------7-7-----------7-----------------------|
G|-7-7--7-7--7-7-4-4--7-7--4-4-5-5--7-7--5-5-5-5--7--/9-9-9-9-------------|
D|-7-7--0-0--7-7-4-4--0-0--4-4-5-5--0-0--5-5-5-5--0--/9-9-9-9-------------|
A|-5-5--5-5--5-5-2-2--5-5--2-2-3-3--5-5--3-3-3-3--5--/7-7-7-7-------------|
D|------------------------------------------------------------------------|

Which either one is used, Guitar 2 ends on:
E|------------------------------------------------------------------------|
B|------------------------------------------------------------------------|
G|-7~---------------------------------------------------------------------|
D|-7~---------------------------------------------------------------------|
A|-5~---------------------------------------------------------------------|
D|------------------------------------------------------------------------|

Order:  INTRO
	VERSE
	PRE-CHORUS
	CHORUS
	BREAK
	VERSE
	PRE-CHORUS
	CHORUS/CHORUS 2
	BREAK 2
	BRIDGE
	CHORUS/CHORUS 2/OPTIONAL CHORUS 2

Questions, Comments etc. email me.
Comments