Lostprophets - Last Summer Chords & Tabs

 

Last Summer Chords & Tabs

Lostprophets Chords & Tabs

Version: 2 Type: Tab 0 ratings
1 star 2 stars 3 stars 4 stars 5 stars
comments

Last Summer Tab

   
"Last Summer"
Lostprophets
Start Something
tabbed by 3N

-=INTRO=-
guitar 1: clean
E-x-x-x-7-5-x-x-x-x-x-x-5h7--------
B----------------------------------
G----------------------------------
D----------------------------------
A----------------------------------
D----------------------------------

guitar 2
E----------------------------------
B----------------------------------
G-------12-11-7--------------------
D-------9--9--5--------------------
A-7-7-7----------------------------
D----------------------------------

-=VERSE=-
guitar 1: clean
E---------------------------------------------------
B-----3---3-------3---3--------3---3--------3---3---
G---4-----------4------------4-------------4--------  
D-5-------5---5--------5---4---------4---4--------4-
A---------------------------------------------------
D---------------------------------------------------
[ Tab from: http://www.guitartabs.cc/tabs/l/lostprophets/last_summer_tab_ver_2.html ]
guitar 2: light distortion, played after 4 times of that^
E-------------------------------------------------------------------
B-------------------------------------------------------------------
G-5------------------------7------------5---------------------------
D-5-----------5------------7------------3------------5------------7-
A-3-----------5------------5------------3------------5------------7-
D-------------5--------------------------------------5------------7-

-=PRECHORUS=-
E------------------------------------
B------------------------------------
G------------------------------------
D---5555555555555555-555555555555555-
A---3333333333333333-222222222222222-
D------------------------------------
pm: xxxxxxxxxxxxxxxx xxxxxxxxxxxxxxx

-=CHORUS=-
guitar 1: distortion
E------------------------------------------------
B------------------------------------------------
G-77777777777777-44444444444444-5555555555555555-
D-77777777777777-44444444444444-5555555555555555-
A-55555555555555-22222222222222-3333333333333333-
D------------------------------------------------

guitar 2: clean
E----------5---5----------5---5------------5---5-
B----------3---3----------3---3------------3---3-
G------------------------------------------------
D------------------------------------------------
A------------------------------------------------
D------------------------------------------------

-=SOLO=-
E-----------------------15-14----15-14----17-14----19-14----
B--/15-15-15-15---------------15-------15-------15-------15-
G---------------14------------------------------------------
D------------------17---------------------------------------
A-----------------------------------------------------------
D-----------------------------------------------------------
Comments