Lostprophets - Last Summer Chords & Tabs

 

Last Summer Chords & Tabs

Lostprophets Chords & Tabs

Version: 2 Type: Bass Tab 0 ratings
1 star 2 stars 3 stars 4 stars 5 stars
comments

Last Summer Bass Tab

Yes i know there isn't a bass solo in this song but who gives a shit. 
If it sounds good play and play it loud.
It is a good way to annoy lead players.

This is my first tab, it goes something like this:
[ Tab from: http://www.guitartabs.cc/tabs/l/lostprophets/last_summer_btab_ver_2.html ]
G|----------------------------15--14----|
D|-/15-15-15-15----------------------15-|
A|--------------14----------------------| x3
E|-----------------17--17-17------------|


G|-15-14-----15-14-----17-14----19-14----|
D|-------15--------15--------15-------15-|
A|---------------------------------------|
E|---------------------------------------|

Enjoy the p**s taking solo!!!!!
Comments