Lostprophets - Kobrakai Chords & Tabs

 

Kobrakai Chords & Tabs

Lostprophets Chords & Tabs

Version: 3 Type: Tab 0 ratings
1 star 2 stars 3 stars 4 stars 5 stars
comments

Kobrakai Tab

Author/Artist: Lostprophets
Title: Kobrakai - Intro
Album: The Fake Sound Of Progress
Transcribed by: Richard Armstrong
Email: Hydromaniac@hotmail.com

This is just the intro to another song from the Lostprophets CD. Enjoy.

Riff 1:

-17----17----17----17-18-|-17----17----17----17-18-|-15----15----15----15----|
----15----15----15-------|----15----15----15-------|----13----13----13----13-|
-------------------------|-------------------------|-------------------------|
-------------------------|-------------------------|-------------------------|
-------------------------|-------------------------|-------------------------|
-------------------------|-------------------------|-------------------------|

[ Tab from: http://www.guitartabs.cc/tabs/l/lostprophets/kobrakai_tab_ver_3.html ]
-13----13----13-(19)----13----|
----13----13---------13----13-|
------------------------------| x4 (including fade up at the start)
------------------------------|
------------------------------|
------------------------------|
(play this note the fourth time)


Riff 2:

-17----17----17----17----18-17-|-17----17----17----17----18-17-|
----15----15----15----15-------|----15----15----15----15-------|
-------------------------------|-------------------------------|
-------------------------------|-------------------------------|
-------------------------------|-------------------------------|
-------------------------------|-------------------------------|


-15----15----15----15----15----|-13----13----13(19)----13----13----|
----13----13----13----13----13-|----13----13--------13----13----13-|
-------------------------------|-----------------------------------| x2
-------------------------------|-----------------------------------|
-------------------------------|-----------------------------------|
-------------------------------|-----------------------------------|
                                  (play this note the second time)
End
Comments