Lostprophets - Kobrakai Chords & Tabs

 

Kobrakai Chords & Tabs

Lostprophets Chords & Tabs

Version: 1 Type: Tab 0 ratings
1 star 2 stars 3 stars 4 stars 5 stars
comments

Kobrakai Tab

   
Artist-Lostprophets
Song-Kobrakai
Instrument-Guitar
Tabbed-Ragbagger

Intro guitar 1 Riff 1

With heavy distortion. Play 3 times.

|--------19----19----19----19----20----19----19----19----19----20----17----
|-----------17----17----17-------------------17----17----17----------------
|--------------------------------------------------------------------------
|--------------------------------------------------------------------------
|--------------------------------------------------------------------------
|--------------------------------------------------------------------------

|--------15----15----15----15----------------------------------------------
|-----------15----15----15----15-------------------------------------------
|--------------------------------------------------------------------------
|--------------------------------------------------------------------------
|--------------------------------------------------------------------------
|--------------------------------------------------------------------------

Intro guitar 1 Riff 1 end variation. Play this to complete intro Riff 1.

|--------19----19----19----19----20----19----19----19----19----20----17----
|-----------17----17----17-------------------17----17----17----------------
|--------------------------------------------------------------------------
|--------------------------------------------------------------------------
|--------------------------------------------------------------------------
|--------------------------------------------------------------------------

|--------15----15----19----15----------------------------------------------
|-----------15----15----15----15-------------------------------------------
|--------------------------------------------------------------------------
|--------------------------------------------------------------------------
|--------------------------------------------------------------------------
|--------------------------------------------------------------------------

Intro guitar 2 Riff 1
With heavy distortion.

|--------------------------------------------------------------------------
|--------------------------------------------------------------------------
|--------------------------------------------------------------------------
|--------2--------2--2--3----2--------2--2--2----2--------2--2--2----2-----
|--------2--------2--2--2----2--------2--2--2----2--------2--2--2----2-----
|--------2--------2--2--2----2--------2--2--2----2--------2--2--2----2-----

P.M. - - - - P.M. - - - - P.M. - - - - P.M. - - P.M. - - - -

|--------------------------------------------------------------------------
|--------------------------------------------------------------------------
|--------------------------------------------------------------------------
|--------2--2--3----2--------2--2--3----2--------0--3--2-------------------
|--------2--2--3----2--------2--2--3----2--------0--3--2-------------------
|--------2--2--3----2--------2--2--3----2--------0--3--2-------------------

P.M. - - - - P.M. - - - - P.M. - - - -

Intro guitar 1 Riff 2

With heavy distortion.

|--------19--19--19--19--20--19--19--19--19--19--20--19--17--17--17--17--1
|-----------17--17--17--17------------17--17--17--17------------15--15--15-
|--------------------------------------------------------------------------
|--------------------------------------------------------------------------
|--------------------------------------------------------------------------
|--------------------------------------------------------------------------

|--------19--19--19--19--20--19--19--19--19--19--20--19--17--17--17--17--17
|-----------17--17--17--17------------17--17--17--17------------15--15--15-
|--------------------------------------------------------------------------
|--------------------------------------------------------------------------
|--------------------------------------------------------------------------
|--------------------------------------------------------------------------


Intro guitar 2 Riff 2

With heavy distortion. Played 2 times.

|--------------------------------------------------------------------------
|--------------------------------------------------------------------------
|--------------------------------------------------------------------------
|--------------------------------------------------------------------------
|--------0--2----0--2----0--2------0--2------0--2--------0--2----0--2----0-
|--------0--2----0--2----0--2------0--2------0--2--------0--2----0--2----0-

H.O. H.O. H.O. B.U. H.O. B.U. H.O. H.O. H.O. H.O. H.O. B.U. H.O.

|--------------------------------------------------------------------------
|--------------------------------------------------------------------------
|--------------------------------------------------------------------------
|--------------------------------------------------------------------------
|--------0--2----0--2----0--2------0--2------0--2--------0--2----0--2----0-
|--------0--2----0--2----0--2------0--2------0--2--------0--2----0--2----0-

H.O. H.O. H.O. B.U. H.O. B.U. H.O. H.O. H.O. H.O. H.O. B.U. H.O.


Neck and bridge pickups with clean tone.

|---------------10----10-----------12-----------15----12----10--------12---|--------12------------------12-----------12-------------------12----------|-------12----------------------------12-9---------------------------------|--------------------------------------------------------------------------
|--------------------------------------------------------------------------
|--------------------------------------------------------------------------

|----------------------------------------------10----10-----------12-------
|------------------------------------12---------------------12-------------
|---------9--10--9----912----12-------------------------------------------
|--------------------------------------------------------------------------
|--------------------------------------------------------------------------
|--------------------------------------------------------------------------

|--------12----13--15----13----12------------------------------------------
|------------------S.U.------------------13----------------------------12--
|----------------------------------------------12----9----10--12----12----
|--------------------------------------------------------------S.U.--------
|--------------------------------------------------------------------------
|--------------------------------------------------------------------------

|--------12----10--------12--10----12--13----12---------------------------=
|---------------12-----------P.O.--------S.U.-----------13-----------------|---------------------------------------------------------------12----9----
|--------------------------------------------------------------------------
|--------------------------------------------------------------------------
|--------------------------------------------------------------------------
[ Tab from: http://www.guitartabs.cc/tabs/l/lostprophets/kobrakai_tab.html ]
|---------------12------------15----12----10----*10------------------------
|--------12-----------12-------------------12----*12-----------------------
|--------------------------------------------------------------------------
|--------------------------------------------------------------------------
|--------------------------------------------------------------------------|--------------------------------------------------------------------------

*Let Ring - - - - - - - - - - - - - - - - - - - - - - - - - - - - - - - - - - - - - - - - - - - - -

Verse break

With bridge pickup and clean tone.

|--------------------------------------------------------------------------
|--------3--5----5----5--------3----3----3--5----5----5--------3----3----3-
|--------H.O.--------------------------------------------------------------
|--------------------------------------------------------------------------
|--------------------------------------------------------------------------
|--------------------------------------------------------------------------

|---------------------------------------3----------------------------------
|--------3----3----3--5----5----5-------------3--5----5----5--------3----3-
|-------------------H.O.---------------------------------------------------
|--------------------------------------------------------------------------
|--------------------------------------------------------------------------
|--------------------------------------------------------------------------

|--------------------------------------------------------------------------
|--------3----3----3--5----5----5--------3----3----3--5----5----5----------
|--------------------------------------------------------------------------
|--------------------------------------------------------------------------
|--------------------------------------------------------------------------
|--------------------------------------------------------------------------

|--------------------------------------------------------------------------
|--------3----3----35----5----5--------3--5----5------3--5----5------3--|-
|----------------------------------------4--4--4--4------------------------
|--------------------------------------------------------------------------
|--------------------------------------------------------------------------
|--------------------------------------------------------------------------

Chorus

With heavy distortion.

|--------------------------------------------------------------------------
|--------------------------------------------------------------------------
|--------------------------------------------------------------------------
|--------------------------------------------------------------------------
|--------0--2----0--2----0--2------0--2------0--2--------0--2----0--2----
|--------0--2----0--2----0--2------0--2------0--2--------0--2----0--2----0

H.O. H.O. H.O. B.U. H.O. B.U. H.O. H.O. H.O. H.O. H.O. B.U. H.O.

|--------------------------------------------------------------------------
|--------------------------------------------------------------------------
|---------------------------------------------------------------9-9-9-9-9-
|---------------------------------------------------------------X-X-X-X-X-
|--------0--2----0--2----0--2------0--2------0--2--------7-7-7-7-7-7-7-7-7-
|--------0--2----0--2----0--2------0--2------0--2--------------------------

H.O. H.O. H.O. B.U. H.O. B.U. H.O. *Use strict up and down strokes for this - - - - - - - - - - - - - - - - -

|--------------------------------------------------------------------------
|--------------------------------------------------------------------------
|--------7-7-7-7-7-7-7-7---------------------------------------------------
|--------X-X-X-X-X-X-X-----------------------------------------------------
|-S.D.--5-5-5-5-5-5-5-5--------0--2----0--2----0--2------0--2------0--2----
|------------------------------------0--2----0--2----0--2------0--2------0-

- - - - - - - - - - - - - - - - - - - - H.O. H.O. H.O. B.U. H.O. B.U. H.O.

|--------------------------------------------------------------------------
|--------------------------------------------------------------------------
|--------------------------------------------------------------------------
|--------------------------------------------------------------------------|--------0--2----0--2----0--2----0--2------0--2--------0--2----0--2----0--
|--------0--2----0--2----0--2----0--2------0--2--------0--2----0--2----0--

H.O. H.O. H.O. H.O. B.U. H.O. H.O. H.O. H.O. B.U. H.O. B.U. H.O.

|--------------------------------------------------------------------------
|--------------------------------------------------------------------------
|--------9-9-9-9-9-9-9-9-9-9-9-9-9-9-9-9----7-7-7-7-7-7-7-7----5-5-5-5-5-5-
|--------X-X-X-X-X-X-X-X-X-X-X-X-X-X-----X-X-X-X-X-X-X----X-X-X-X-X-X-X----
|--------7-7-7-7-7-7-7-7-7-7-7-7-7-7-7-7----5-5-5-5-5-5-5-5----5-5-5-5-5-5-
|--------------------------------------------------S.D.--------------------
*Use strict up and down strokes for this - - - - - - - - - - - - - - - - - - - - - - - - - - - - - - - - - - - - - - - - - - - 
- - - - - - - - - - -

|--------------------------------------------------------------------------
|--------------------------------------------------------------------------
|--------------------------------------------------------------------------
|--------------------------------------------------------------------------
|--------0--2----0--2----0--2------0--2------0--2--------0--2----0--2----0-             
|--------0--2----0--2----0--2------0--2------0--2--------0--2----0--2----0-

H.O. H.O. H.O. B.U. H.O. B.U. H.O. H.O. H.O. H.O. H.O. B.U. H.O.

|--------------------------------------------------------------------------
|--------------------------------------------------------------------------
|-------------------------------------------------------------9-9-9-9-9-9-|-------------------------------------------------------------X-X-X-X-X-X-
|-------0--2----0--2----0--2------0--2------0--2-------7-7-7-7-7-7-7-7-7-7-
|-------0--2----0--2----0--2------0--2------0--2---------------------------

*Use strict up and down strokes for this - - - - - - - - - - - - - - - - - -



|--------------------------------------------------------------------------
|--------------------------------------------------------------------------
|--------11-11-11-11-11-11-11-11----12-12-12-12-12-12-12-12----------------
|--------X-X-X-X-X-X-X-X-X-X-X------X-X-X-X-X-X-X-X-X-X-X------------------
|---------9---9--9---9--9---9---9---9----10-10-10-10-10-10-10-10-----------
|--------------------------------------------------------------------------

- - - - - - - - - - - - - - - - - - - - - - - - - - - - - - - - - - - - - - - - - - - - - - - - - - - - - -

Then play the first section of intro.

Then play the verse section and break.

Then play the chorus.

Then guitar 1 plays the first intro Riff without distortion up to the beat box.


Comments