Lostprophets - I Dont Know Chords & Tabs

 

I Dont Know Chords & Tabs

Lostprophets Chords & Tabs

Version: 2 Type: Tab 0 ratings
1 star 2 stars 3 stars 4 stars 5 stars
comments

I Dont Know Tab

   
Lostprophets - I Dont Know
Tabber: Will Sharp
Tuning: Drop D (EBGDAD)
Email: chimaira_tool@hotmail.com


This is all my own work an the first tab out 4 this, dont bother 
ripping it off.  Solo is 100%, exact frets an everything. This was 
tabbed out on my guitar in CGCFAD tuning with a capo on 2nd to put 
it into standard drop D.  This does mean that it removes my 21st an 
22nd frets but i used the high E to replicate those missing frets
during the solo but tabbed it with 21st fret in use.

Feel free to email me with any comments.

Guitar 2 always has a light distortion on, Guitar 1 is varied.

In areas of the Chorus, Guitar 2's chords sound to go lower, at other
times they don't so it is up what you play - you either repeat the:

	11th fret chord twice or,
	play the 11th fret chord then play 9th fret chord.

Remember that the 11th fret chord also = 4,6,6 chord on A,D,G strings
and the 9th fret chord = 2,4,4 chord on A,D,G strings.  Tho I'd suggest
only using these for guitar 2 during the chorus.


Verse
Guitar 1: (also possible for Guitar 2) 
E|----------------------------------------------------------------|
B|---------------------5------------------------------------------|
G|-----6-----6-----4-------4---------6-----6-----4-----6/9\6-6----|
D|---6-----6-----6---6---6---6-----6-----6-----6---6---6/9\6-6----|
A|-4-----0-----0-----------------4-----0-----0--------------------|
D|----------------------------------------------------------------|
								 x3
E|----------------------------------------------------------------|
B|---------------------5------------------------------------------|
G|-----6-----6-----4-------4---------6-----6-----4-----6-6-6------|
D|---6-----6-----6---6---6---6-----6-----6-----6---6---6-6-6------|
A|-4-----0-----0-----------------4-----0-----0---------4-4-4------|
D|----------------------------------------------------------------|
					  	      |Mute after last one|

On the third repeat,finish with this instead of 3 ending chords to
go into the Pre-chorus: 
(brackets) symbolise previously played notes.
E|----------------------------------------------------------------|
B|----------------------------------------------------------------|
G|------(6)----(6)----(4)--4---4----------------------------------|
D|----(6)----(6)----(6)-(6)--6---6--------------------------------|
A|--(4)----(0)----(0)---------------------------------------------|
D|----------------------------------------------------------------|


Pre-Chorus
Guitar 1: (Distortion with flange effect on)
E|----------------------------------------------------------------|
B|----------------------------------------------------------------|
G|--6--9--4--9--6-------6--9--11--9--4----------------------------|
D|--6--9--4--9--6-------6--9--11--9--4-------------2-2-2-2--------|
A|--4--7--2--7--4-------4--7--9---7--2-------------2-2-2-2--------|
D|-------------------------------------------------2-2-2-2--------|
PM|						   . . . .

Guitar 2: (Distortion)
E|----------------------------------------------------------------|
B|----------------------------------------------------------------|
G|----------------------------------------------------------------|
D|--4--7--2--7--4-------4--7--9--7--2--------------2-2-2-2--------|
A|--4--7--2--7--4-------4--7--9--7--2--------------2-2-2-2--------|
D|--4--7--2--7--4-------4--7--9--7--2--------------2-2-2-2--------|
PM|						   . . . .


Chorus: Both guitars go straight into it from muted notes played
Guitar 2:							 x3
E|----------------------------------------------------------------|
B|----------------------------------------------------------------|
G|--2--2-2--X-2-X-------------------6--6-6--X-6-X---4--4-4--X-4-X-|
D|--2--2-2--X-2-X---4--4-4--X-4-X---6--6-6--X-6-X---4--4-4--X-4-X-|
A|--0--0-0--X-0-X---4--4-4--X-4-X---4--4-4--X-4-X---2--2-2--X-2-X-|
D|------------------4--4-4--X-4-X---------------------------------|
						 
Then end with these after the 3rd repeat: (let each ring)
E|----------------------------------------------------------------|
B|----------------------------------------------------------------|
G|--2~------------------------------6~-------6~-------------------|
D|--2~--------------4~--------------6~-------6~-------------------|
A|--0~--------------4~--------------4~-------4~-------------------|
D|------------------4~--------------------------------------------|


Guitar 1: plays this over the top of guitar 2
E|---------0-------------0-------------4-----0-----4-----0--------|
B|-----------0-------------0-------------4-----4-----4------------|
G|-2--2-2----------------------6--6-6------6-----6-----6----------|
D|-2--2-2--------4--4-4--------6--6-6-----------------------------|
A|-0--0-0--------4--4-4--------4--4-4-----------------------------|
D|---------------4--4-4-------------------------------------------|

E|---------0-------------0-------------4-----0-----4-----7--------|
B|-----------0-------------0-------------4-----4-----4------------|
G|-2--2-2----------------------6--6-6------6-----6-----6----------|
D|-2--2-2--------4--4-4--------6--6-6-----------------------------|
A|-0--0-0--------4--4-4--------4--4-4-----------------------------|
D|---------------4--4-4-------------------------------------------|

E|---------0-------------0-------------4-----0-----4--------------|
B|-----------0-------------0-------------4-----4-----4---0--------|
G|-2--2-2----------------------6--6-6------6-----6-----6----------|
D|-2--2-2--------4--4-4--------6--6-6-----------------------------|
A|-0--0-0--------4--4-4--------4--4-4-----------------------------|
D|---------------4--4-4-------------------------------------------|

Delay and Flange on:
E|-------4------/7~\----------------------------------------------|
B|-----5---(5)-(/7~\)---------------------------------------------|
G|--/6------------------------------------------------------------|
D|----------------------------------------------------------------|
A|----------------------------------------------------------------|
D|----------------------------------------------------------------|



Verse
Guitar 1:
E|----------------------------------------------------------------|
B|------------------------(5)---7---------------------------------|
G|------(6)----(6)----(4)-----------------------------------------|
D|----(6)----(6)----(6)-(6)-(6)-----------------------------------|
A|--(4)----(0)----(0)---------------------------------------------|
D|----------------------------------------------------------------|
After this riff, play the verse from the beginning twice, and on 
the 2nd repeat end with the bracketed ending (near top of the tab) 
to go into the pre-chorus:


Pre-Chorus
Guitar 1: (Distortion with flange effect on)
E|----------------------------------------------------------------|
B|----------------------------------------------------------------|
G|--6--9--4--9--6-------6--9--11--9--4----------------------------|
D|--6--9--4--9--6-------6--9--11--9--4-------2-2-2-2--------------|
A|--4--7--2--7--4-------4--7--9---7--2-------2-2-2-2--------------|
D|-------------------------------------------2-2-2-2--------------|
PM|					     . . . .

Guitar 2: (Distortion)
E|----------------------------------------------------------------|
B|----------------------------------------------------------------|
G|----------------------------------------------------------------|
D|--4--7--2--7--4-------4--7--9--7--2--------2-2-2-2--------------|
A|--4--7--2--7--4-------4--7--9--7--2--------2-2-2-2--------------|
D|--4--7--2--7--4-------4--7--9--7--2--------2-2-2-2--------------|
PM|					     . . . .



Chorus: Both guitars go straight into it from muted notes played
Guitar 2:							 x3
E|----------------------------------------------------------------|
B|----------------------------------------------------------------|
G|--2--2-2--X-2-X-------------------6--6-6--X-6-X---4--4-4--X-4-X-|
D|--2--2-2--X-2-X---4--4-4--X-4-X---6--6-6--X-6-X---4--4-4--X-4-X-|
A|--0--0-0--X-0-X---4--4-4--X-4-X---4--4-4--X-4-X---2--2-2--X-2-X-|
D|------------------4--4-4--X-4-X---------------------------------|
						 
Then end with these after the 3rd repeat: (let each ring)
E|----------------------------------------------------------------|
B|----------------------------------------------------------------|
G|--2~------------------------------6~-------6~-------------------|
D|--2~--------------4~--------------6~-------6~-------------------|
A|--0~--------------4~--------------4~-------4~-------------------|
D|------------------4~--------------------------------------------|


Guitar 1: plays this over the top of guitar 2
E|---------0-------------0-------------4-----0-----4-----0--------|
B|-----------0-------------0-------------4-----4-----4------------|
G|-2--2-2----------------------6--6-6------6-----6-----6----------|
D|-2--2-2--------4--4-4--------6--6-6-----------------------------|
A|-0--0-0--------4--4-4--------4--4-4-----------------------------|
D|---------------4--4-4-------------------------------------------|

E|---------0-------------0-------------4-----0-----4-----7--------|
B|-----------0-------------0-------------4-----4-----4------------|
G|-2--2-2----------------------6--6-6------6-----6-----6----------|
D|-2--2-2--------4--4-4--------6--6-6-----------------------------|
A|-0--0-0--------4--4-4--------4--4-4-----------------------------|
D|---------------4--4-4-------------------------------------------|

E|---------0-------------0-------------4-----0-----4--------------|
B|-----------0-------------0-------------4-----4-----4---0--------|
G|-2--2-2----------------------6--6-6------6-----6-----6----------|
D|-2--2-2--------4--4-4--------6--6-6-----------------------------|
A|-0--0-0--------4--4-4--------4--4-4-----------------------------|
D|---------------4--4-4-------------------------------------------|
[ Tab from: http://www.guitartabs.cc/tabs/l/lostprophets/i_dont_know_tab_ver_2.html ]
E|----------------------------------------------------------------|
B|----------------------------------------------------------------|
G|--2~------------------------------6~-------6~-------------------|
D|--2~--------------4~--------------6~-------6~-------------------|
A|--0~--------------4~--------------4~-------4~-------------------|
D|------------------4~--------------------------------------------|


Fill In:
Guitar 1 plays this on their own:
E|----------12~------------7~------------12-----------------7-----|
B|------12--------------5-------------12----12------------5---5---|
G|-8/9-----------4-4h6---------8-8/9-----------9---4-4h6--------6\|
D|----------------------------------------------------------------|
A|----------------------------------------------------------------|
D|----------------------------------------------------------------|

(All notes played are lightly muted and v. fast)
E|-------7-----------7-----------7-------5-----------5-----------5|
B|-----5---5-------5---5-------5-------5---5-------5---5-------5--|
G|---6-------6---6-------6---6-------6-------6---6-------6---6----|
D|-4-----------4-----------4-------7-----------7-----------7------|
A|----------------------------------------------------------------|
D|----------------------------------------------------------------|

E|-------7-----------7-----------7-------5-----------4-----------4|
B|-----5---5-------5---5-------5-------5---5-------5---5-------5--|
G|---6-------6---6-------6---6-------6-------6---6-------6---6----|
D|-4-----------4-----------4-------7-----------6-----------6------|
A|----------------------------------------------------------------|
D|----------------------------------------------------------------|


Guitar 2 plays this over Guitar 1's 2nd part:
(Lightly Palm Mute these)
E|----------------------------------------------------------------|
B|----------------------------------------------------------------|
G|----------------------------------------------------------------|
D|-4-4-X-X-X-X-4-X-4-X-X-X-X-X-X-7-7-X-X-X-X-7-X-7-X-X-X-X-X-X-4-4|
A|-4-4-X-X-X-X-4-X-4-X-X-X-X-X-X-7-7-X-X-X-X-7-X-7-X-X-X-X-X-X-4-4|
D|-4-4-X-X-X-X-4-X-4-X-X-X-X-X-X-7-7-X-X-X-X-7-X-7-X-X-X-X-X-X-4-4|

E|----------------------------------------------------------------|
B|----------------------------------------------------------------|
G|----------------------------------------------------------------|
D|-X-X-X-X-4-X-4-X-X-X-X-X-X-7-7-X-X-X-X-7-X-6-X-X-X-X-X-X-7-X----|
A|-X-X-X-X-4-X-4-X-X-X-X-X-X-7-7-X-X-X-X-7-X-6-X-X-X-X-X-X-7-X----|
D|-X-X-X-X-4-X-4-X-X-X-X-X-X-7-7-X-X-X-X-7-X-6-X-X-X-X-X-X-7-X----|
(After this last muted bar played above, guitar 2 goes straight
into the next part [see "End to fill in" section])


End to the fill in:
Guitar 1:
E|----------------------------------4--4-4----------4--4-6--------|
B|----------------------------------4--4-4----------4--4-6--------|
G|--2--2-2--------------------------6--6-6----------6--6-6--------|
D|--2--2-2----------4--4-4----------6--6-6----------6--6-6--------|
A|--0--0-0----------4--4-4----------4--4-4----------4--4-4--------|
D|------------------4--4-4----------------------------------------|

Guitar 2:
E|----------------------------------------------------------------|
B|----------------------------------------------------------------|
G|--2--2-2--X-2-X-------------------6--6-6--X-6-X---6--6-6--X-6-X-|
D|--2--2-2--X-2-X---4--4-4--X-4-X---6--6-6--X-6-X---6--6-6--X-6-X-|
A|--0--0-0--X-0-X---4--4-4--X-4-X---4--4-4--X-4-X---4--4-4--X-4-X-|
D|------------------4--4-4--X-4-X---------------------------------|



Chorus:
Guitar 2:							 x2
E|----------------------------------------------------------------|
B|----------------------------------------------------------------|
G|--2--2-2--X-2-X-------------------6--6-6--X-6-X---4--4-4--X-4-X-|
D|--2--2-2--X-2-X---4--4-4--X-4-X---6--6-6--X-6-X---4--4-4--X-4-X-|
A|--0--0-0--X-0-X---4--4-4--X-4-X---4--4-4--X-4-X---2--2-2--X-2-X-|
D|------------------4--4-4--X-4-X---------------------------------|
						 
Then end with these after the 3rd repeat: (let each ring)
E|----------------------------------------------------------------|
B|----------------------------------------------------------------|
G|--2~------------------------------6~-------6~-------------------|
D|--2~--------------4~--------------6~-------6~-------------------|
A|--0~--------------4~--------------4~-------4~-------------------|
D|------------------4~--------------------------------------------|


Guitar 1: plays this over the top of guitar 2
E|---------0-------------0-------------4-----0-----4-----7--------|
B|-----------0-------------0-------------4-----4-----4------------|
G|-2--2-2----------------------6--6-6------6-----6-----6----------|
D|-2--2-2--------4--4-4--------6--6-6-----------------------------|
A|-0--0-0--------4--4-4--------4--4-4-----------------------------|
D|---------------4--4-4-------------------------------------------|

E|---------0-------------0-------------4-----0-----4--------------|
B|-----------0-------------0-------------4-----4-----4---0--------|
G|-2--2-2----------------------6--6-6------6-----6-----6----------|
D|-2--2-2--------4--4-4--------6--6-6-----------------------------|
A|-0--0-0--------4--4-4--------4--4-4-----------------------------|
D|---------------4--4-4-------------------------------------------|

E|----------------------------------------------------------------|
B|----------------------------------------------------------------|
G|--2~------------------------------6~-------6~-------------------|
D|--2~--------------4~--------------6~-------6~-------------------|
A|--0~--------------4~--------------4~-------4~-------------------|
D|------------------4~--------------------------------------------|


SOLO:
Guitar 1: (Distortion)

For the pinch harmonic below (*), play the ph first, then bend the string up, then
release it back. On my guitar, play the harmonic just past the bridge humbucker.

The ending screeching bit isnt pinch harmonics btw, it is the b string being bent
upwards.  Hold the first 'pair' of notes for a fraction of a second before playing
the next 2 in that 'set'  

E|----------------------------------------------------------------|
B|----------7/9\7---------7/9\7-------------------5-4-5-4---------|
G|--8-8-8-9-------8-8-8-9---------4-4-4-6-6*--4-6---------4-6-6-6-|
D|----------------------------------------------------------------|
A|----------------------------------------------------------------|
D|----------------------------------------------------------------|


E|------------------------------------/12-11----------------------|
B|-------------------------------------------12--------------12-12|
G|--/9-8---8-----6----/9-8---8------------------13-13-11-13--11-11|
D|-------9---9-6-----------9---9-6--------------------------------|
A|----------------------------------------------------------------|
D|----------------------------------------------------------------|

		(tremelo pick each note to give the string 'energy' 
E|----------------------------------------------------------------|
B|-12\--0-0-0---0h2h5p2-2/5h9p5-5/9h12p9-9/12h14p12-12/14h17p14-14|
G|-11\------------------------------------------------------------|
D|----------------------------------------------------------------|
A|----------------------------------------------------------------|
D|----------------------------------------------------------------|

for the slide)
E|-----------------------------16-------------19------------------|
B|/17h19p17-17/19h21p19--19h21----19----------------------19------|
G|-----------------------------------18-16-18----18-16-18----18-16|
D|----------------------------------------------------------------|
A|----------------------------------------------------------------|
D|----------------------------------------------------------------|

	     Tremelo Pick x4  Tremelo Pick x4   Tremelo Pick x8
E|---------|-9h12p9---------|--9h14p9h12p9---|--14h19p14h16p14----|
B|----19\~-|--------9h12p9--|----------------|--------------------|
G|-18------|----------------|----------------|--------------------|
D|---------|----------------|----------------|--------------------|
A|---------|----------------|----------------|--------------------|
D----------|----------------|----------------|--------------------|

   |With these you must hold the bend|	   |fast tremelo effect on|
E|--17~-----17---17------14~---14---14-----------------0~---------|
B|--20b22~-b22--b22---18b19~--b19--b19-----------------5~---------|
G|-----------------------------------------------------4~---------|
D|-----------------------------------------------------6~---------|
A|-----------------------------------------------------4~---------|
D|----------------------------------------------------------------|


Guitar 2: Plays this over the solo				 x3
E|----------------------------------------------------------------|
B|----------------------------------------------------------------|
G|--2--2-2--X-2-X-------------------6--6-6--X-6-X---4--4-4--X-4-X-|
D|--2--2-2--X-2-X---4--4-4--X-4-X---6--6-6--X-6-X---4--4-4--X-4-X-|
A|--0--0-0--X-0-X---4--4-4--X-4-X---4--4-4--X-4-X---2--2-2--X-2-X-|
D|------------------4--4-4--X-4-X---------------------------------|
	
E|----------------------------------------------------------------|
B|----------------------------------------------------------------|
G|--2-2-2-2-2-2-2-2-2-----------------6-6-6-6-6-6-6-6-6-6-6-6-6-6-|
D|--2-2-2-2-2-2-2-2-2-4-4-4-4-4-4-4-4-6-6-6-6-6-6-6-6-6-6-6-6-6-6-|
A|--0-0-0-0-0-0-0-0-0-4-4-4-4-4-4-4-4-4-4-4-4-4-4-4-4-4-4-4-4-4-4-|
D|--------------------4-4-4-4-4-4-4-4-----------------------------|

E|----------------------------------------------------------------|
B|----------------------------------------------------------------|
G|-6-6-6-6---2--2-2-----------------------------------------------|
D|-6-6-6-6---2--2-2----4--4-4--------(2~)-------------------------|
A|-4-4-6-4---0--0-0----4--4-4--------(2~)-------------------------|
D|---------------------4--4-4--------(2~)-------------------------|


Any comments, suggestions etc. - email me.
Comments