Lostprophets - I Dont Know Chords & Tabs

 

I Dont Know Chords & Tabs

Lostprophets Chords & Tabs

Version: 1 Type: Bass Tab 0 ratings
1 star 2 stars 3 stars 4 stars 5 stars
comments

I Dont Know Bass Tab

Band- Lostprophets
Song- I Don't Know

/ - slide up
\ - slide down
h - hammer on
~ - let ring


Intro (0:11)

G|---R---|----------|
D|---E---|----------|
A|---S---|----4-4-4-|
E|---T---|----------|


Verse (0:12)

G|----6-------------------------|----6------------------------|
D|--6------6---4-4--------------|--6------6---9\--------------|
A|4-----0----0-----0-7-9--0-7-0-|4-----0----0----0-7-9--0-7-0-|
E|------------------------------|-----------------------------|

G|----6-------------------------|----6-----------------------|
D|--6------6---4-4--------------|--6------6---9\-------------|
A|4-----0----0-----0-7-9--0-7-0-|4-----0----0----0-7-9-4-4-4-|
E|------------------------------|----------------------------|

G|----6-------------------------|----6------------------------| x2
D|--6------6---4-4--------------|--6------6---9\--------------|
A|4-----0----0-----0-7-9--0-7-0-|4-----0----0----0-7-9--0-7-0-|
E|------------------------------|-----------------------------|


Prechorus (0:35)

G|--------|----------|-------------|--------------|
D|------4-|----------|-------------|--------------|
A|--------|----------|-------------|--------------|
E|2~------|0h2~------|2--5--5h7-5--|0~--/12-12-12-|


Chorus (0:46)

G|---------------|---------------|---------------|---------------|
D|---------------|---------------|---------------|---------------|
A|---------------|---------------|4--4-4-4-4-2-4-|2--2-2-4-2-4-2-|
E|5--5-5-5-5-5-5-|2--2-2-2-2-0-2-|---------------|---------------|

G|---------------|---------------|---------------|---------------|
D|---------------|---------------|---------------|---------------|
A|---------------|---------------|4--4-4-4-4-2-4-|2--2/7-7-7-9-7-|
E|5--5-5-5-5-5-5-|2--2-2-2-2-2-2-|---------------|---------------|

G|---------------|---------------|---------------|---------------|
D|---------------|---------------|---------------|---------------|
A|---------------|---------------|4--4-4-4-4-2-4-|2--2-2-4-2-4-2-|
E|5--5-5-5-5-5-5-|2--2-2-2-2-0-2-|---------------|---------------|

G|-----------|-------------|-------------|
D|-----------|-------------|-------------|
A|-----------|-------------|4-4--4----4~-|
E|5--5-5--5--|2-2--2-2--2--|----------0~-|


-> play Verse again (1:11)

-> play Prechorus again (1:34)

-> play Chorus again (1:45)


Interlude (2:08)
[ Tab from: http://www.guitartabs.cc/tabs/l/lostprophets/i_dont_know_btab.html ]
G|---9---9--------|----------------|---------|----9----9--------|--------11-|-----------|
D|7----9---9/11---|-------4---4----|4-4-4-4-4/7h9---9----9/11\--|-----4-----|-11--11----|
A|----------------|---2h4---4---4--|---------|------------------|-----------|-----------|
E|----------------|0---------------|---------|------------------|0-2--------|--------9\-|

G|----------------|---------------|----------------|----------------|
D|----------------|---------------|----------------|----------------|
A|----------------|---------------|----------------|----------------|
E|2-2-2-2-2-2-2-2-|2-0-2-2-2-2-2-2/5-5-5-5-5-5-5-5-|5-5-5-5-5-5-5-5\|

G|----------------|---------------|----------------|--------------|
D|----------------|---------------|----------------|--------------|
A|----------------|---------------|----------------|--------------|
E|2-2-2-2-2-2-2-2-|2-0-2-2-2-2-2-2/5-5-5-5-5-5-5-4-|4-4-4-4-4-4-4-|


Chorus (2:29)

G|----------|----------|----------|----------|
D|----------|----------|----------|----------|
A|----------|----------|4--4-4----|4--4-4----|
E|5--5-5----|2--2-2----|----------|----------|

G|---------------|---------------|---------------|---------------| x2
D|---------------|---------------|---------------|---------------|
A|---------------|---------------|4--4-4-4-4-2-4-|2--2-2-4-2-4-2-|
E|5--5-5-5-5-5-5-|2--2-2-2-2-0-2-|---------------|---------------|

G|---------------|---------------|---------------|---------------|
D|---------------|---------------|---------------|---------------|
A|---------------|---------------|4--4-4-4-4-2-4-|2--2-2-2-2-4-2-|
E|5--5-5-5-5-5-5-|2--2-2-2-2-2-2-|---------------|---------------|


Guitar Solo (2:51)

G|---------------|---------------|---------------|---------------|
D|---------------|---------------|---------------|---------------|
A|---------------|---------------|4--4-4-4-4-2-4-|2--2-2-2-2-4-2-|
E|5--5-5-5-5-5-5-|2--2-2-2-2-0-2-|---------------|---------------|

G|---------------|---------------|---------------|---------------|
D|---------------|---------------|---------------|---------------|
A|---------------|---------------|4--4-4-4-4-4-4-|7--7-7-7-7-7-7-|
E|5--5-5-5-5-5-5-|2--2-2-2-2-2-2-|---------------|---------------|

G|-------6-----7-|-----4-6-4---6-|---------------|---------------|
D|7--7-9---9-7---|4--4-------6---|---------------|-------------7-|
A|---------------|---------------|4--4-4-4-4-4-4-|7--7-7-7-7-9---|
E|---------------|---------------|---------------|---------------|

G|-----------------------| x3 |--------------11-11-11-|
D|9h11-11-11-11-11-11-11-|    |9h11-11-11-11----------|
A|-----------------------|    |-----------------------|
E|-----------------------|    |-----------------------|

G|----------|----------|
D|----------|----------|
A|0--0-0----|----------|
E|----------|2--2-2----|
Comments