Lostprophets - Hello Again Chords & Tabs

 

Hello Again Chords & Tabs

Lostprophets Chords & Tabs

Version: 2 Type: Tab 0 ratings
1 star 2 stars 3 stars 4 stars 5 stars
comments

Hello Again Tab

Lostprophets - Hello Again
Tabber: Will Sharp
Tuning: Drop D (EBGDAD)
Email: chimaira_tool@hotmail.com

Ok, here is the complete tab for Hello Again, cool riff at beginnig is correct,
so is pretty much everything else lol.  I tabbed out the piano interlude at the
bottom - that has to be the best interlude on the cd in my opinion.  Pretty sure
the number of times chords are played is correct, if not just follow the cd.

Questions, comments etc. email me.
Show me what you think by rating it.

INTRO/VERSE:
Guitar 1:
E|------7-7------------5-5---------7-7----------0-0-----|-----7-7---------|
B|----0-----0---0----------0-----------0---0--3-----3p0-|--(0)----0---0---|
G|------------------7--------7--6--------6--------------|-----------------|
D|--9---------9---9-------------------------------------|-9---------9---9-|
A|------------------------------------------------------|-----------------|
D|------------------------------------------------------|-----------------|

				     					 x6
E|----5-5---------7-7----------0-5-0--------------------------------------|
B|--------0-----------0---0--3--------------------------------------------|
G|-7--------7--6--------6-------------------------------------------------|
D|------------------------------------------------------------------------|
A|------------------------------------------------------------------------|
D|------------------------------------------------------------------------|


Guitar 2: (waits 1 repeat of Guitar 1 before coming in)
									 x3
E|------------------------------------------------------------------------|
B|------------------------------------------------------------------------|
G|------------------------------------------------------------------------|
D|--9~-------0~-------4~-------0~-------9~--------0~-------4~--------7~---|
A|--9~-------0~-------4~-------0~-------9~--------0~-------4~--------7~---|
D|--9~-------0~-------4~-------0~-------9~--------0~-------4~--------7~---|

     x16   x16   x16         x16
E|-----|-----|-----|-----------|------------------------------------------|
B|-----|-----|-----|-(Lift PM)-|------------------------------------------|
G|-----|-----|-----|-----------|------------------------------------------|
D|--5--|--7--|--5--|-----5-----|--9~---------7-9.-------------------------|
A|--5--|--7--|--5--|-----5-----|--9~---------7-9.-------------------------|
D|--5--|--7--|--5--|-----5-----|--9~---------7-9.-------------------------|
PM| .	  .     .	 .


CHORUS:
Both Guitars:

      x8    x8   x16    x8    x8    x8    x8
E|-----|-----|-----|-----|-----|-----|-----|------------------------------|
B|-----|-----|-----|-----|-----|-----|-----|------------------------------|
G|-----|-----|-----|-----|-----|-----|-----|------------------------------|
D|--9--|--0--|--5--|--9--|--0--|--5--|--7--|------------------------------|
A|--9--|--0--|--5--|--9--|--0--|--5--|--7--|------------------------------|
D|--9--|--0--|--5--|--9--|--0--|--5--|--7--|------------------------------|

REPEAT VERSE


BRIDGE:
Guitar 2: (with acoustic effect on, easy for parker users!)
	   These aren't exact but they are pretty damn close, you have to 
	   down-pick them once each, fast.
E|------------------------------------------------------------------------|
B|--0~------0~------0~-------0~-------------------------------------------|
G|--7~------4~------7~-------4~-------------------------------------------|
D|--7~------4~------7~-------4~-------------------------------------------|
A|--5~------2~------5~-------2~-------------------------------------------|
D|------------------------------------------------------------------------|

Guitar 1: (with tremelo effect)
E|------------------------------------------------------------------------|
B|-----3------3-5-5/7-----5----------3-7-7/8-8------3-----3-5-5/7------5--|
G|---0------------------4---4---------------------0---0~-------------4---4|
D|-------5~-----------7-------(7)--7------------5------------------7------|
A|------------------------------------------------------------------------|
D|------------------------------------------------------------------------|

E|------------------------------------------------------------------------|
B|----------8-7-(0~)------------------------------------------------------|
G|---(4)------------------------------------------------------------------|
D|-7------7---------------------------------------------------------------|
A|------------------------------------------------------------------------|
D|------------------------------------------------------------------------|

Both Guitars:
E|------------------------------------------------------------------------|
B|------------------------------------------------------------------------|
G|------------------------------------------------------------------------|
D|--9-9-9-9-9-9--2-2-2-2-2-2--4-4-4-4-4-4--0-0-0-0-0-0--9-9-9-9-9-9--2-2-2|
A|--9-9-9-9-9-9--2-2-2-2-2-2--4-4-4-4-4-4--0-0-0-0-0-0--9-9-9-9-9-9--2-2-2|
D|--9-9-9-9-9-9--2-2-2-2-2-2--4-4-4-4-4-4--0-0-0-0-0-0--9-9-9-9-9-9--2-2-2|
[ Tab from: http://www.guitartabs.cc/tabs/l/lostprophets/hello_again_tab_ver_2.html ]
E|------------------------------------------------------------------------|
B|------------------------------------------------------------------------|
G|------------------------------------------------------------------------|
D|-2-2-2--4-4-4-4-4-4--7-7-7-7-7-7--9-9-9-9-9-9--2-2-2-2-2-2--4-4-4-4-4-4-|
A|-2-2-2--4-4-4-4-4-4--7-7-7-7-7-7--9-9-9-9-9-9--2-2-2-2-2-2--4-4-4-4-4-4-|
D|-2-2-2--4-4-4-4-4-4--7-7-7-7-7-7--9-9-9-9-9-9--2-2-2-2-2-2--4-4-4-4-4-4-|

E|------------------------------------------------------------------------|
B|------------------------------------------------------------------------|
G|------------------------------------------------------------------------|
D|-4-4-4-4-4-4-4-4-4-4----------------------------------------------------|
A|-4-4-4-4-4-4-4-4-4-4----------------------------------------------------|
D|-4-4-4-4-4-4-4-4-4-4----------------------------------------------------|

Guitar 1: (with a heavy flange that is kinda 'smokey')
E|------------------------------------------------------------------------|
B|------------------------------------------------------------------------|
G|-14-14-14-14-14-14-14-14-14-14-14-14-14-14-14---------------------------|
D|------------------------------------------------------------------------|
A|------------------------------------------------------------------------|
D|------------------------------------------------------------------------|


Both Guitars:
     x12   x24   x12   x12   x24   x12   x12   x12   x12
E|-----|-----|-----|-----|-----|-----|-----|-----|-----|------------------|
B|-----|-----|-----|-----|-----|-----|-----|-----|-----|------------------|
G|-----|-----|-----|-----|-----|-----|-----|-----|-----|------------------|
D|--0--|--5--|--9--|--0--|--5--|--9--|--0--|--5--|--7--|------------------|
A|--0--|--5--|--9--|--0--|--5--|--9--|--0--|--5--|--7--|------------------|
D|--0--|--5--|--9--|--0--|--5--|--9--|--0--|--5--|--7--|------------------|


When you reach the 2nd "9" played, there is a little high pitched sound in the
background - this isnt played on a guitar but the keyboard.  It is hard to hear
but it sounds somthing like this: 
									 x2
E|--------2---2------------2---2-----------2---2-----------2---2----------|
B|--0---0---0---0---0---0----0---0---0---0---0---0---0---0---0---0--------|
G|----4-----------4---4------------4---4-----------4---4-----------4------|
D|------------------------------------------------------------------------|
A|------------------------------------------------------------------------|
D|------------------------------------------------------------------------|


When you reach the last "7" chord played above, Guitar 1 plays this:

Guitar 1:
E|------7-7------------5-5---------7-7----------0-0-----|-----7-7---------|
B|----0-----0---0----------0-----------0---0--3-----3p0-|--(0)----0---0---|
G|------------------7--------7--6--------6--------------|-----------------|
D|--9---------9---9-------------------------------------|-9---------9---9-|
A|------------------------------------------------------|-----------------|
D|------------------------------------------------------|-----------------|

				     x2
E|----5-5---------7-7----------0-5-0--|--7~-------10~------12~-------9~---|
B|--------0-----------0---0--3--------|--0~--------0~-------0~-------0~---|
G|-7--------7--6--------6-------------|------------7~-------9~-------6~---|
D|------------------------------------|-----------------------------------|
A|------------------------------------|-----------------------------------|
D|------------------------------------|-----------------------------------|

While Guitar 2 could play this over Guitar 1:

Guitar 2: This part i think is just the bass but guitar 2 could play it too.
E|------------------------------------------------------------------------|
B|------------------------------------------------------------------------|
G|------------------------------------------------------------------------|
D|------------------------------------------------------------------------|
A|------------------------------------------------------------------------|
D|--9-9-------9-9-------9-9-------9-9-9-9-15-15-15-9-------9-9-------9-9--|

E|------------------------------------------------------------------------|
B|------------------------------------------------------------------------|
G|------------------------------------------------------------------------|
D|------------------------------------------------------------------------|
A|------------------------------------------------------------------------|
D|--9-9--9-9---------9-9----------9-9-9-9-15-15-15-9----------------------|


The little piano interlude after the song is this:
									 x4
E|---------------------------------------5--------------------------------|
B|------5-5--------5-5--------5-5----5-5----------------------------------|
G|--9----------9----------9-----------------------------------------------|
D|----7----------7----------7---------------------------------------------|
A|------------------------------------------------------------------------|
D|------------------------------------------------------------------------|

Comments, questions etc. email me.  
Let me know what you think by rating this (no stupid raters please (ie 1 star), 
keep the system fair.
Comments