Lostprophets - Goodbye Tonight Chords & Tabs

 

Goodbye Tonight Chords & Tabs

Lostprophets Chords & Tabs

Version: 1 Type: Tab 0 ratings
1 star 2 stars 3 stars 4 stars 5 stars
comments

Goodbye Tonight Tab

   
THIS ALBUM IS AMAZING!!
Ok i got this tab from the web somewhere coz the song is really confusing it's got a
million differnt parts to it, so i hope the person doesn't mind that ive put this on
here. I did tab bout half of it but it still wasn't rite and then I found this tab and
its soooo much beta! If u hav ne questions my e-mail is in_your_world@hotmail.co.uk or u
could alwayz try rhcp-3454@hotmail.com but i havent used in AGES!! Everything
under the line is what I found I didn't change it in anyway. EnJoy!xx

----------------------------------------------------------------------------
Gtr I (D A D G B E) - 'Lee Gaze - Clean Guitar'
Gtr II (D A D G B E) - 'Jamie Oliver - Keyboard'
Gtr III (D A D G B E) - 'Mike Lewis - Guitar'
Gtr IV (D A D G B E) - 'Lee Gaze - Distorted Guitar'
Gtr V (D A D G B E) - 'Ian Watkins - Sampled Vox'

 Verse 1
  Q=75
 4/4
  Gtr I
  W          E S S S S S S  S  S S S S S E   +E  S S S S S S S  S S S  S S E
|----------|-----------2---------------2---|-------------2---2-----------2-----|
|----------|---3---0-3---3-----3---0h3---3-|-(3)-3---0-3---3----3---3------3---|
|----------|-----0---------(0)---0---------|-------0--------------0----0-------|
|----------|-------------------------------|-----------------------------------|
|----------|-------------------------------|-----------------------------------|
|----------|-------------------------------|-----------------------------------|
|
| Gtr II
|                                        ~~~~~~~~                          ~
| W          H              E.     E.    E   +H              E.     E.     E
|----------|-------------------------------|-----------------------------------|
|----------|----------------7------8-------|-----------------7------8----------|
|----------|-----------------------------7-|-(7)---------------------------7---|
|----------|-------------------------------|-----------------------------------|
|----------|-------------------------------|-----------------------------------|
|----------|-------------------------------|-----------------------------------|


   E  S S S S S S  S  S S S S S E   +E  S S S S S S  S  S S S S S E
|-------------2---------------2---|-------------2---------------2---|
|-----3---0-3---3-----3---0h3---3-|-(3)-3---0-3---3-----3---0h3---3-|
|-------0---------(0)---0---------|-------0---------(0)---0---------|
|---------------------------------|---------------------------------|
|---------------------------------|---------------------------------|
|---------------------------------|---------------------------------|
|
|  ~~~                          ~~~~~~~~                          ~
| +H               E.     E.    E   +Q      Q        E.     E.    E
|-------------------------------7-|-(7)---------------------------7-|
|------------------7------8-------|------------------7------8-------|
|-(7)-----------------------------|---------------------------------|
|---------------------------------|---------------------------------|
|---------------------------------|---------------------------------|
|---------------------------------|---------------------------------|


    +E  S  S S S  S S S  S S S  S S  E   +E  S  S S S  S S S  S S S  S S  E
||----------------2---2-----------2----|---------------2---2-----------3-----||
||o-(3)-3----0-3----3----3---3-------3-|-(3)-3----0-3----3----3---3-------3-o||
||---------0---------------0----0------|--------0---------------0----0-------||
||-------------------------------------|-------------------------------------||
||o------------------------------------|------------------------------------o||
||-------------------------------------|-------------------------------------||
|
|    E  E.     E.     E.     E.      E    E  E.     E.     E.     E.      E
||---------------------------7------10-|--------------------------7------10--||
||o-----5------7------8----------------|-----5------7------8----------------o||
||-------------------------------------|-------------------------------------||
||-------------------------------------|-------------------------------------||
||o------------------------------------|------------------------------------o||
||-------------------------------------|-------------------------------------||


   Pre-Chorus 1
    Q=150
    C          D
    Gtr I
    q  q  E q  E   +E  q  E E E q
||--3--3--3-3--5-|-(5)-5--5-5-5-5--|
||o-5--5--5-5--7-|-(7)-7--7-7-7-7--|
||--5--5--5-5--7-|-(7)-7--7-7-7-7--|
||---------------|-----------------|
||o--------------|-----------------|
||---------------|-----------------|
|
|   Gtr III
|   q  q  E q  E   +E  q  E E E q
||---------------|-----------------|
||o--------------|-----------------|
||--5--5--5-5--7-|-(7)-7--7-7-7-7--|
||--5--5--5-5--7-|-(7)-7--7-7-7-7--|
||o-3--3--3-3--5-|-(5)-5--5-5-5-5--|
||---------------|-----------------|


  1.,2.,3.
  Em         Dmaj7/F#         D/G   Dmaj7/F#
  q  q  E q   E    +E   q   E  E  E  q   4x
|-7--7--7-7--10-|-(10)-10--10-10-10-10---||
|-8--8--8-8--10-|-(10)-10--10-10-10-10--o||
|-9--9--9-9--11-|-(11)-11--11-11-11-11---||
|---------------|------------------------||
|---------------|-----------------------o||
|---------------|------------------------||
|
| q  q  E q   E    +E   q   E  E  E  q   4x
|---------------|------------------------||
|---------------|-----------------------o||
|-9--9--9-9--11-|-(11)-11--11-12-12-11---||
|-9--9--9-9--11-|-(11)-11--11-12-12-11---||
|-7--7--7-7---9-|--(9)--9---9-10-10--9--o||
|---------------|------------------------||


  4.
  Em            Dmaj7/F#
  q  q  q  q     q   q   q  Q
|-7--7--7--7--|-10--10--10-----||
|-8--8--8--8--|-10--10--10-----||
|-9--9--9--9--|-11--11--11-----||
|-------------|----------------||
|-------------|----------------||
|-------------|----------------||
|
| q  q  q  q     q   q   q  Q
|-------------|----------------||
|-------------|----------------||
|-9--9--9--9--|-11--11--11-----||
|-9--9--9--9--|-11--11--11-----||
|-7--7--7--7--|--9---9---9-----||
|-------------|----------------||


   Chorus
    $
    C5                  D5
    Gtr IV
     E  E  E  E  E  E E  E    E   E  E  E  E  E E  E
||-------------------------|-------------------------|
||o-10---------------------|-10----------------------|
||--------11----12----9-11-|--------11----12----9-11-|
||-----12----12----12------|-----12----12----12------|
||o------------------------|-------------------------|
||-------------------------|-------------------------|
|
|   Gtr III
|    Q     Q     E  E E  E   +E   E  E  E  E  E E  E
||-------------------------|-------------------------|
||o------------------------|-------------------------|
||---5-----5-----5--5-5--7-|-(7)--7--7--7--7--7-7--7-|
||---5-----5-----5--5-5--7-|-(7)--7--7--7--7--7-7--7-|
||o--3-----3-----3--3-3--5-|-(5)--5--5--5--5--5-5--5-|
||-------------------------|-------------------------|


                          1.
  E5                  G5
   E  E  E  E  E  E E  E    E   E  E  E  E  E E  E
|------------------------|--------------------------||
|-10---------------------|-10----------------------o||
|-------11----12----9-11-|--------11----12----9-11--||
|----12----12----12------|-----12----12----12-------||
|------------------------|-------------------------o||
|------------------------|--------------------------||
|
|  Q     Q     E  E E  E   +E   E  E  E  E  E E  E
|------------------------|--------------------------||
|------------------------|-------------------------o||
|------------------------|--------------------------||
|--2-----2-----2--2-2--5-|-(5)--5--5--5--5--5-5--5--||
|--2-----2-----2--2-2--5-|-(5)--5--5--5--5--5-5--5-o||
|--2-----2-----2--2-2--5-|-(5)--5--5--5--5--5-5--5--||


 2.
   E   E  E  E  E  E E   E
|--------------------------|
|-10-----------------------|
|--------11----12----9-/12-|
|-----12----12----12-------|
|--------------------------|
|--------------------------|
|
| +E   E  E  E  E  E E   E
|--------------------------|
|--------------------------|
|--------------------------|
|-(5)--5--5--5--5--5-5---5-|
|-(5)--5--5--5--5--5-5---5-|
|-(5)--5--5--5--5--5-5---5-|


    C5                         D5
     E   E   E   E   E   E   E   E     E    E   E   E   E   E   E   E
||----------------------------------|---------------------------------|
||o-13-(13)-13-(13)-13-(13)-13-(13)-|-17--(17)-15-(15)-17-(17)-15-----|
||------12------12------12------12--|------12------12------12-----/16-|
||----------------------------------|---------------------------------|
||o---------------------------------|---------------------------------|
||----------------------------------|---------------------------------|
|
|    q       q       E   q       E    +E    E   E   E   E   E   E   E
||----------------------------------|---------------------------------|
||o---------------------------------|---------------------------------|
||---5-------5-------5---5-------7--|-(7)---7---7---7---7---7---7---7-|
||---5-------5-------5---5-------7--|-(7)---7---7---7---7---7---7---7-|
||o--3-------3-------3---3-------5--|-(5)---5---5---5---5---5---5---5-|
||----------------------------------|---------------------------------|


                                                         To Coda
  E5                         G5
   E   E   E   E   E   E   E   E     E    E   E   E   E   E   E  E
|---------------------------------|---------------------------------||
|-15-(15)-15-(15)-15-(15)-15-(15)-|-20--(20)-19-(19)-15-(15)-19----o||
|-----16------16------16------16--|------16------16------16-----12--||
|---------------------------------|---------------------------------||
|---------------------------------|--------------------------------o||
|---------------------------------|---------------------------------||
|
|  q       q       E   q       E    +E    E   E   E   E   E   E  E
|---------------------------------|---------------------------------||
|---------------------------------|--------------------------------o||
|--9-------9-------9---9----------|---------------------------------||
|--9-------9-------9---9-------5--|-(5)---5---5---5---5---5---5--5--||
|--7-------7-------7---7-------5--|-(5)---5---5---5---5---5---5--5-o||
|------------------------------5--|-(5)---5---5---5---5---5---5--5--||


 Pre-Verse
  N.C.
  Gtr I
   E  +E   E  E  +E   E  Q     +H.       Q
|---------------------------|---------------|
|-20-(20)----19-(19)----15--|-(15)----------|
|---------16---------16-----|-----------16--|
|---------------------------|---------------|
|---------------------------|---------------|
|---------------------------|---------------|
|
| Gtr V
|  W                            W
|---------------------------|---------------|
|---------------------------|---------------|
|-12------------------------|--11-----------|
|---------------------------|---------------|
|---------------------------|---------------|
|---------------------------|---------------|


   E  +E   E  E  +E   E  Q     +W
|---------------------------|---------||
|-20-(20)----19-(19)----15--|-(15)----||
|---------16---------16-----|---------||
|---------------------------|---------||
|---------------------------|---------||
|---------------------------|---------||
|
|  W                           +W
|---------------------------|---------||
|---------------------------|---------||
|--9------------------------|--(9)----||
|---------------------------|---------||
|---------------------------|---------||
|---------------------------|---------||


 Verse 2
  Q=75
  Gtr I
  E S S S S S S  S  S S S S S E   +E  S S S S S S  S  S S S S S E
|-----------2---------------2---|-------------2---------------2---|
|---3---0-3---3-----3---0h3---3-|-(3)-3---0-3---3-----3---0h3---3-|
|-----0---------(0)---0---------|-------0---------(0)---0---------|
|-------------------------------|---------------------------------|
|-------------------------------|---------------------------------|
|-------------------------------|---------------------------------|
|
| Gtr II
|                             ~~~~~~~~                          ~
| H              E.     E.    E   +H               E.     E.    E
|-----------------------------7-|-(7)---------------------------7-|
|----------------7------8-------|------------------7------8-------|
|-------------------------------|---------------------------------|
|-------------------------------|---------------------------------|
|-------------------------------|---------------------------------|
|-------------------------------|---------------------------------|


   E  S S S S S S  S  S S S S S E   +E  S S S S S S  S  S S S S S E
|-------------2---------------2---|-------------2---------------2---|
|-----3---0-3---3-----3---0h3---3-|-(3)-3---0-3---3-----3---0h3---3-|
|-------0---------(0)---0---------|-------0---------(0)---0---------|
|---------------------------------|---------------------------------|
|---------------------------------|---------------------------------|
|---------------------------------|---------------------------------|
|
|                               ~~~~~~~~                          ~
| +H               E.     E.    E   +H               E.     E.    E
|-(7)---------------------------7-|-(7)---------------------------7-|
|------------------7------8-------|------------------7------8-------|
|---------------------------------|---------------------------------|
|---------------------------------|---------------------------------|
|---------------------------------|---------------------------------|
|---------------------------------|---------------------------------|


    +E  S  S S S  S S S  S S S  S S  E   +E  S  S S S  S S S  S S S  S S  E
||----------------2---2-----------2----|---------------2---2-----------3-----||
||o-(3)-3----0-3----3----3---3-------3-|-(3)-3----0-3----3----3---3-------3-o||
||---------0---------------0----0------|--------0---------------0----0-------||
||-------------------------------------|-------------------------------------||
||o------------------------------------|------------------------------------o||
||-------------------------------------|-------------------------------------||
|
|    E  E.     E.     E.     E.      E    E  E.     E.     E.     E.      E
||---------------------------7------10-|--------------------------7------10--||
||o-----5------7------8----------------|-----5------7------8----------------o||
||-------------------------------------|-------------------------------------||
||-------------------------------------|-------------------------------------||
||o------------------------------------|------------------------------------o||
||-------------------------------------|-------------------------------------||


   Pre-Verse 2
    Q=150
    C          D
    Gtr I
    q  q  E q  E   +E  q  E E E q
||--3--3--3-3--5-|-(5)-5--5-5-5-5--|
||o-5--5--5-5--7-|-(7)-7--7-7-7-7--|
||--5--5--5-5--7-|-(7)-7--7-7-7-7--|
||---------------|-----------------|
||o--------------|-----------------|
||---------------|-----------------|
|
|   Gtr III
|   q  q  E q  E   +E  q  E E E q
||---------------|-----------------|
||o--------------|-----------------|
||--5--5--5-5--7-|-(7)-7--7-7-7-7--|
||--5--5--5-5--7-|-(7)-7--7-7-7-7--|
||o-3--3--3-3--5-|-(5)-5--5-5-5-5--|
||---------------|-----------------|


  Em         Dmaj7/F#         D/G   Dmaj7/F#
  q  q  E q   E    +E   q   E  E  E  q
|-7--7--7-7--10-|-(10)-10--10-10-10-10---||
|-8--8--8-8--10-|-(10)-10--10-10-10-10--o||
|-9--9--9-9--11-|-(11)-11--11-11-11-11---||
|---------------|------------------------||
|---------------|-----------------------o||
|---------------|------------------------||
|
| q  q  E q   E    +E   q   E  E  E  q
|---------------|------------------------||
|---------------|-----------------------o||
|-9--9--9-9--11-|-(11)-11--11-12-12-11---||
|-9--9--9-9--11-|-(11)-11--11-12-12-11---||
|-7--7--7-7---9-|--(9)--9---9-10-10--9--o||
|---------------|------------------------||


    C              D
    Gtr I
    q   q  E q      E    +E  q  E E E q
||--3---3--3-3------5-|--(5)-5--5-5-5-5--|
||o-5---5--5-5------7-|--(7)-7--7-7-7-7--|
||--5---5--5-5------7-|--(7)-7--7-7-7-7--|
||--------------------|------------------|
||o-------------------|------------------|
||--------------------|------------------|
|
|   Gtr III
|   q   q  E q      E    +E  q  E E E q
||--------------------|------------------|
||o-------------------|------------------|
||--5---5--5-5------7-|--(7)-7--7-7-7-7--|
||--5---5--5-5------7-|--(7)-7--7-7-7-7--|
||o-3---3--3-3------5-|--(5)-5--5-5-5-5--|
||--------------------|------------------|
|
|   Gtr V
|   H.         +E   E    +W
||--------------------|------------------|
||o-------------------|------------------|
||--9----------(9)-11-|-(11)-------------|
||--------------------|------------------|
||o-------------------|------------------|
||--------------------|------------------|


  1.
  Em               Dmaj7/F#         D/G   Dmaj7/F#
   q   q  E q       E    +E   q   E  E  E  q
|--7---7--7-7------10-|-(10)-10--10-10-10-10---||
|--8---8--8-8------10-|-(10)-10--10-10-10-10--o||
|--9---9--9-9------11-|-(11)-11--11-11-11-11---||
|---------------------|------------------------||
|---------------------|-----------------------o||
|---------------------|------------------------||
|
|  q   q  E q       E    +E   q   E  E  E  q
|---------------------|------------------------||
|---------------------|-----------------------o||
|--9---9--9-9------11-|-(11)-11--11-12-12-11---||
|--9---9--9-9------11-|-(11)-11--11-12-12-11---||
|--7---7--7-7-------9-|--(9)--9---9-10-10--9--o||
|---------------------|------------------------||
|
|  H.          +E   E    +W
|---------------------|------------------------||
|------------------12-|-(12)------------------o||
|-12----------(12)----|------------------------||
|---------------------|------------------------||
|---------------------|-----------------------o||
|---------------------|------------------------||

[ Tab from: http://www.guitartabs.cc/tabs/l/lostprophets/goodbye_tonight_tab.html ]
  2.
                   D.S. al Coda
  Em             Dmaj7/F#
   q  q  q  q      q    q   q  Q
|--7--7--7--7--|--10---10--10-----||
|--8--8--8--8--|--10---10--10-----||
|--9--9--9--9--|--11---11--11-----||
|--------------|------------------||
|--------------|------------------||
|--------------|------------------||
|
|  q  q  q  q      q    q   q  Q
|--------------|------------------||
|--------------|------------------||
|--9--9--9--9--|--11---11--11-----||
|--9--9--9--9--|--11---11--11-----||
|--7--7--7--7--|---9----9---9-----||
|--------------|------------------||
|
|  W              +W
|--------------|------------------||
|--------------|------------------||
|-12-----------|-(12)-------------||
|--------------|------------------||
|--------------|------------------||
|--------------|------------------||


 Interlude
  &
  C7+11
  Gtr IV
   E  E  E  E  E  E  E  E    E   E  E  E  E  E  E  E
|-------------------------|--------------------------|
|-19-19-19-19-19-19-19-19-|-19--19-19-19-19-19-19-19-|
|-16-16-16-16-16-16-16-16-|-16--16-16-16-16-16-16-16-|
|-------------------------|--------------------------|
|-------------------------|--------------------------|
|-------------------------|--------------------------|
|
| Gtr III
|  q     q     E  q     E   +E   q     E  E  E  q
|-------------------------|--------------------------|
|-------------------------|--------------------------|
|--5-----5-----5--5-----5-|-(5)--5-----5--5--5--5----|
|--5-----5-----5--5-----5-|-(5)--5-----5--5--5--5----|
|--3-----3-----3--3-----3-|-(3)--3-----3--3--3--3----|
|-------------------------|--------------------------|
|
| Gtr II
|  <
|  E  E  E  E  E  E  E  E    E   E  E  E  E  E  E  E
|----14-15----14-15----14-|-15-----14-15----14-15----|
|-12-------12-------12----|-----12-------12-------12-|
|-------------------------|--------------------------|
|-------------------------|--------------------------|
|-------------------------|--------------------------|
|-------------------------|--------------------------|


  Cmaj7
   H.                 +E   E    E   E  E  E  E  E  E  E
|----------------------------|--------------------------|
|-17-----------------(17)-17-|-17--17-17-17-17-17-17-17-|
|-16-----------------(16)-16-|-16--16-16-16-16-16-16-16-|
|----------------------------|--------------------------|
|----------------------------|--------------------------|
|----------------------------|--------------------------|
|
|  q      q     E  q       E   +E   q     E  E  E  q
|----------------------------|--------------------------|
|----------------------------|--------------------------|
|--5------5-----5--5-------5-|-(5)--5-----5--5--5--5----|
|--5------5-----5--5-------5-|-(5)--5-----5--5--5--5----|
|--3------3-----3--3-------3-|-(3)--3-----3--3--3--3----|
|----------------------------|--------------------------|
|
|  E   E  E  E  E  E   E   E    E   E  E  E  E  E  E  E
|-14--15----14-15-----14--15-|-----14-15----14-15----14-|
|--------12-------12---------|-12--------12-------12----|
|----------------------------|--------------------------|
|----------------------------|--------------------------|
|----------------------------|--------------------------|
|----------------------------|--------------------------|


  G/C
   H.                 +E   E    E   E  E  E  E  E  E  E
|----------------------------|--------------------------|
|-15-----------------(15)-15-|-15--15-15-15-15-15-15-15-|
|-16-----------------(16)-16-|-16--16-16-16-16-16-16-16-|
|----------------------------|--------------------------|
|----------------------------|--------------------------|
|----------------------------|--------------------------|
|
|  q      q     E  q       E   +E   q     E  E  E  q
|----------------------------|--------------------------|
|----------------------------|--------------------------|
|--5------5-----5--5-------5-|-(5)--5-----5--5--5--5----|
|--5------5-----5--5-------5-|-(5)--5-----5--5--5--5----|
|--3------3-----3--3-------3-|-(3)--3-----3--3--3--3----|
|----------------------------|--------------------------|
|
|  E   E  E  E  E  E   E   E    E   E  E  E  E  E  E  E
|-19-----14-19----14--19-----|-14--19----14-19----14-19-|
|-----12-------12---------12-|--------12-------12-------|
|----------------------------|--------------------------|
|----------------------------|--------------------------|
|----------------------------|--------------------------|
|----------------------------|--------------------------|


  Cmaj7
   E  E  E  E  E  E  E  E    E  E  E  E  E  E  Q
|-------------------------|-----------------------||
|-15-15-15-15-15-15-15-15-|-15-15-15-15-15-15-----||
|-16-16-16-16-16-16-16-16-|-16-16-16-16-16-16-----||
|-------------------------|-----------------------||
|-------------------------|-----------------------||
|-------------------------|-----------------------||
|
|  PM--------------------------------|
|  E  E  E  E  E  E  E  E    E  E  E  E  E  E  Q
|-------------------------|-----------------------||
|-------------------------|-----------------------||
|--5--5--5--5--5--5--5--5-|--5--5--5--5--5--5-----||
|--5--5--5--5--5--5--5--5-|--5--5--5--5--5--5-----||
|--3--3--3--3--3--3--3--3-|--3--3--3--3--3--3-----||
|-------------------------|-----------------------||
|
|              >
|  E  E  E  E  E  E  E  E    E  E  E  E  E  Q.
|----14-19----14-19----14-|-19----14-19-----------||
|-12-------12-------12----|----12-------12--------||
|-------------------------|-----------------------||
|-------------------------|-----------------------||
|-------------------------|-----------------------||
|-------------------------|-----------------------||


 Out-Chorus
  N.CC5            D5
  Gtr IV
  Q   E  E  E  E E  E    E   E  E  E  E  E E  E
|---------------------|-------------------------|
|---------------------|-10----------------------|
|----11----12----9-11-|--------11----12----9-11-|
|-------12----12------|-----12----12----12------|
|---------------------|-------------------------|
|---------------------|-------------------------|
|
| Gtr III
| Q   Q     E  E E  E   +E   E  E  E  E  E E  E
|---------------------|-------------------------|
|---------------------|-------------------------|
|-----5-----5--5-5--7-|-(7)--7--7--7--7--7-7--7-|
|-----5-----5--5-5--7-|-(7)--7--7--7--7--7-7--7-|
|-----3-----3--3-3--5-|-(5)--5--5--5--5--5-5--5-|
|---------------------|-------------------------|


  E5                  G5
   E  E  E  E  E  E E  E    E   E  E  E  E  E E  E
|------------------------|-------------------------|
|-10---------------------|-10----------------------|
|-------11----12----9-11-|--------11----12----9-11-|
|----12----12----12------|-----12----12----12------|
|------------------------|-------------------------|
|------------------------|-------------------------|
|
|  Q     Q     E  E E  E   +E   E  E  E  E  E E  E
|------------------------|-------------------------|
|------------------------|-------------------------|
|------------------------|-------------------------|
|--2-----2-----2--2-2--5-|-(5)--5--5--5--5--5-5--5-|
|--2-----2-----2--2-2--5-|-(5)--5--5--5--5--5-5--5-|
|--2-----2-----2--2-2--5-|-(5)--5--5--5--5--5-5--5-|


    C5                  D5
     E  E  E  E  E  E E  E    E   E  E  E  E  E E  E
||-------------------------|-------------------------|
||o-10---------------------|-10----------------------|
||--------11----12----9-11-|--------11----12----9-11-|
||-----12----12----12------|-----12----12----12------|
||o------------------------|-------------------------|
||-------------------------|-------------------------|
|
|    Q     Q     E  E E  E   +E   E  E  E  E  E E  E
||-------------------------|-------------------------|
||o------------------------|-------------------------|
||---5-----5-----5--5-5--7-|-(7)--7--7--7--7--7-7--7-|
||---5-----5-----5--5-5--7-|-(7)--7--7--7--7--7-7--7-|
||o--3-----3-----3--3-3--5-|-(5)--5--5--5--5--5-5--5-|
||-------------------------|-------------------------|


  1.,2.
  E5                  G5
   E  E  E  E  E  E E  E    E   E  E  E  E  E E  E  3x
|------------------------|--------------------------||
|-10---------------------|-10----------------------o||
|-------11----12----9-11-|--------11----12----9-11--||
|----12----12----12------|-----12----12----12-------||
|------------------------|-------------------------o||
|------------------------|--------------------------||
|
|  Q     Q     E  E E  E   +E   E  E  E  E  E E  E  3x
|------------------------|--------------------------||
|------------------------|-------------------------o||
|------------------------|--------------------------||
|--2-----2-----2--2-2--5-|-(5)--5--5--5--5--5-5--5--||
|--2-----2-----2--2-2--5-|-(5)--5--5--5--5--5-5--5-o||
|--2-----2-----2--2-2--5-|-(5)--5--5--5--5--5-5--5--||


  3.
  E5                  G5
   E  E  E  E  E  E E  E    E   E  E  E  E  E E   E
|------------------------|--------------------------|
|-10---------------------|-10-----------------------|
|-------11----12----9-11-|--------11----12----9-/12-|
|----12----12----12------|-----12----12----12-------|
|------------------------|--------------------------|
|------------------------|--------------------------|
|
|  Q     Q     E  E E  E   +E   E  E  E  E  E E   E
|------------------------|--------------------------|
|------------------------|--------------------------|
|------------------------|--------------------------|
|--2-----2-----2--2-2--5-|-(5)--5--5--5--5--5-5---5-|
|--2-----2-----2--2-2--5-|-(5)--5--5--5--5--5-5---5-|
|--2-----2-----2--2-2--5-|-(5)--5--5--5--5--5-5---5-|


    C5                         D5
     E   E   E   E   E   E   E   E     E    E   E   E   E   E   E   E
||----------------------------------|---------------------------------|
||o-13-(13)-13-(13)-13-(13)-13-(13)-|-17--(17)-15-(15)-17-(17)-15-----|
||------12------12------12------12--|------12------12------12-----/16-|
||----------------------------------|---------------------------------|
||o---------------------------------|---------------------------------|
||----------------------------------|---------------------------------|
|
|    q       q       E   q       E    +E    E   E   E   E   E   E   E
||----------------------------------|---------------------------------|
||o---------------------------------|---------------------------------|
||---5-------5-------5---5-------7--|-(7)---7---7---7---7---7---7---7-|
||---5-------5-------5---5-------7--|-(7)---7---7---7---7---7---7---7-|
||o--3-------3-------3---3-------5--|-(5)---5---5---5---5---5---5---5-|
||----------------------------------|---------------------------------|


  E5                         G5
   E   E   E   E   E   E   E   E     E    E   E   E   E   E   E  E
|---------------------------------|---------------------------------||
|-15-(15)-15-(15)-15-(15)-15-(15)-|-20--(20)-19-(19)-15-(15)-19----o||
|-----16------16------16------16--|------16------16------16-----12--||
|---------------------------------|---------------------------------||
|---------------------------------|--------------------------------o||
|---------------------------------|---------------------------------||
|
|  q       q       E   q       E    +E    E   E   E   E   E   E  E
|---------------------------------|---------------------------------||
|---------------------------------|--------------------------------o||
|--9-------9-------9---9----------|---------------------------------||
|--9-------9-------9---9-------5--|-(5)---5---5---5---5---5---5--5--||
|--7-------7-------7---7-------5--|-(5)---5---5---5---5---5---5--5-o||
|------------------------------5--|-(5)---5---5---5---5---5---5--5--||


  C5
  Gtrs II, IV
   E  E  E  E  E  E  E  E    E   E  E  E  E  E  E  E
|-------14-------14-------|-14--------14-------14-----|
|-------------------------|---------------------------|
|-11s12----11s12----11s12-|-----11s12----11s12----11s=|
|-------------------------|---------------------------|
|-------------------------|---------------------------|
|-------------------------|---------------------------|
|
| Gtr III
|  E  E  q     E  q     E   +E   E  q     E  E  q
|-------------------------|---------------------------|
|-------------------------|---------------------------|
|--5--5--5-----5--5-----5-|-(5)--5--5-----5--5--5-----|
|--5--5--5-----5--5-----5-|-(5)--5--5-----5--5--5-----|
|--3--3--3-----3--3-----3-|-(3)--3--3-----3--3--3-----|
|-------------------------|---------------------------|


   E  E  E  E  E  E  E  E    E   E  E  E  E  E  E  E
|-------------------------|--------------------------|
|----17-------17-------17-|--------17-------17-------|
|-12----11s12----11s12----|-11s=12----11s12----11s12-|
|-------------------------|--------------------------|
|-------------------------|--------------------------|
|-------------------------|--------------------------|
|
|  E  E  q     E  q     E   +E   E  q     E  E  q
|-------------------------|--------------------------|
|-------------------------|--------------------------|
|--5--5--5-----5--5-----5-|-(5)--5--5-----5--5--5----|
|--5--5--5-----5--5-----5-|-(5)--5--5-----5--5--5----|
|--3--3--3-----3--3-----3-|-(3)--3--3-----3--3--3----|
|-------------------------|--------------------------|


   E  E  E  E  E  E  E  E    E   E  E  E  E  E  E  E
|-------------------------|--------------------------|
|-15-------15-------15----|-----15-------15-------15-|
|----11s12----11s12----11s|=12-----11s12----11s12----|
|-------------------------|--------------------------|
|-------------------------|--------------------------|
|-------------------------|--------------------------|
|
|  E  E  q     E  E  E  E   +E   E  E  q     E  q
|-------------------------|--------------------------|
|-------------------------|--------------------------|
|--5--5--5-----5--5--5--5-|-(5)--5--5--5-----5--5----|
|--5--5--5-----5--5--5--5-|-(5)--5--5--5-----5--5----|
|--3--3--3-----3--3--3--3-|-(3)--3--3--3-----3--3----|
|-------------------------|--------------------------|


   E  E  E  E  E  E  E  E    E   E  E  E  E  E  E  E
|-------------------------|---------------------------|
|-------17-------17-------|-17--------17-------17-----|
|-11s12----11s12----11s12-|-----11s12----11s12----11s=|
|-------------------------|---------------------------|
|-------------------------|---------------------------|
|-------------------------|---------------------------|
|
|  E  E  q     E  q     E   +E   E  q     E  E  q
|-------------------------|---------------------------|
|-------------------------|---------------------------|
|--5--5--5-----5--5-----5-|-(5)--5--5-----5--5--5-----|
|--5--5--5-----5--5-----5-|-(5)--5--5-----5--5--5-----|
|--3--3--3-----3--3-----3-|-(3)--3--3-----3--3--3-----|
|-------------------------|---------------------------|


  D5
   E  H.       +E     +W            +W            +W
|------------------|-------------|-------------|-------------|
|------------------|-------------|-------------|-------------|
|-12s11-------(11)-|-(11)--------|-(11)--------|-(11)--------|
|------------------|-------------|-------------|-------------|
|------------------|-------------|-------------|-------------|
|------------------|-------------|-------------|-------------|
|
|  W                  +W            +W            +W
|------------------|-------------|-------------|-------------|
|------------------|-------------|-------------|-------------|
|------------------|-------------|-------------|-------------|
|--0---------------|--(0)--------|--(0)--------|--(0)--------|
|--0---------------|--(0)--------|--(0)--------|--(0)--------|
|--0---------------|--(0)--------|--(0)--------|--(0)--------|


   +W            +W            +W            +W
|-------------|-------------|-------------|---------*|
|-------------|-------------|-------------|---------*|
|-(11)--------|-(11)--------|-(11)--------|-(11)----*|
|-------------|-------------|-------------|---------*|
|-------------|-------------|-------------|---------*|
|-------------|-------------|-------------|---------*|
|
|  +W            +W            +W            +W
|-------------|-------------|-------------|---------*|
|-------------|-------------|-------------|---------*|
|-------------|-------------|-------------|---------*|
|--(0)--------|--(0)--------|--(0)--------|--(0)----*|
|--(0)--------|--(0)--------|--(0)--------|--(0)----*|
|--(0)--------|--(0)--------|--(0)--------|--(0)----*|


Duration Legend
---------------
W - whole; H - half; Q - quarter; E - 8th; S - 16th; T - 32nd; X - 64th; a - acciaccatura
+ - note tied to previous; . - note dotted; .. - note double dotted
Uncapitalized letters represent notes that are staccato (1/2 duration)
Irregular groupings are notated above the duration line
Duration letters will always appear directly above the note/fret number it represents the
duration for.  Duration letters with no fret number below them represent rests.  Multi-
bar rests are notated in the form Wxn, where n is the number of bars to rest for.  Low
----------------------------------------------------------------------------

Ok and thats it!Its like the worlds longest tab! lol, i know it may seem a little
confusing with all these different partz to it and stuff but wen u sit down and look at it
it actually sounds realy good and its not as confusing as it first seems! So hope its ok  ~xxxx~xxxx~
Comments