Lostprophets - For Sure Chords & Tabs

 

For Sure Chords & Tabs

Lostprophets Chords & Tabs

Version: 3 Type: Tab 0 ratings
1 star 2 stars 3 stars 4 stars 5 stars
comments

For Sure Tab

Lostprophets - For Sure Live
Tabbed: Will Sharp
Tuning : CGCFAD
Email: chimaira_tool@hotmail.com

Ok, heres the 1st accurate an complete tab for For Sure.  It says
its live but it was tabbed from the cd and NME vid/Reading vid, so
it has extra bits to the cd. Im sure it is like 100% correct.


INTRO + VERSE:

Guitar 1: (play fast)
(Clean + Chorus effet on)				  
D|---------------------------------------------------------|
A|--------10--------------------10--------------------10---|
F|---10--------10---10----10----------10----10---10--------|
C|-8----8----8----8----------------------------0----0----0-|
G|---------------------10----10----10----10----------------|
C|---------------------------------------------------------|

D|---------------------------------------------------------|
A|-----8--------11------------------10---------------------|
F|10-------10--------10---10---10--------10---10----10-----|
C|---0---0----0----0----0----8----8----8----8--------------|
G|-----------------------------------------------10----10--|
C|---------------------------------------------------------|

							  x3
D|---------------------------------------------------------|
A|10--------------------10--------8--------8---------------|
F|------10----10---10--------10-------10-------10---10-----|
C|---------------0----0----0----0---0----0---0----0--------|
G|---10----10----------------------------------------------|
C|---------------------------------------------------------|

End with this:
D|---------------------------------------------------------|
A|--------10---10---10----10----10----10-------------------|
F|---10----------------10----10----10----10----------------|
C|-0----0----0----0----------------------------------------|
G|---------------------------------------------------------|
C|---------------------------------------------------------|

Alternatively, live, Guitar 1 (Lee) plays this instead of 
the first and third repeats of the riff above to replace 
the 10, 8, 8 section played on the A string: 
D|---------------------------------------------------------|
A|--------10--------8--------------------------------------|
F|---10--------10-------10---9---10------------------------|
C|-0----0----0----0---0----0---0---------------------------|
G|---------------------------------------------------------|
C|---------------------------------------------------------|


Guitar 2: comes in after 1st repeat of Guitar 1 (Slight Distortion,
	  is heavy and not palm muted when the harmonics end)
	
  Palm muted with quick downstrokes
D|---------------------------------------------------------|
A|---------------------------------------------------------|
F|---------------------------------------------------------|
C|--8-8-8-8-8-8-8-8--10-10-10-10-10-10-10-10--12--5-5-5-5-5|
G|--8-8-8-8-8-8-8-8--10-10-10-10-10-10-10-10--12--5-5-5-5-5|
C|--8-8-8-8-8-8-8-8--10-10-10-10-10-10-10-10--12--5-5-5-5-5|

	      On the 6th repeat, when live, guitar 2 puts in
	x5    some harmonics (*) starting at the 5th fret:
D|-------|-------------------------------------------------|
A|-------|-------------------7*-7*-10-10-10-10-10-10-10-10-|
F|-------|-------5*-5*-7*-7*-7*-7*-10-10-10-10-10-10-10-10-|
C|-5-5-5-|-5*-5*-5*-5*-7*-7*-7*-7*-8--8--8--8--8--8--8--8--|
G|-5-5-5-|-5*-5*-5*-5*-7*-7*-7*-7*-8--8--8--8--8--8--8--8--|
C|-5-5-5-|-5*-5*-5*-5*-------------------------------------|


VERSE (Heavy Part):
Both Guitars: (Heavy Distortion)

      x10     x7		 x10     x7
D|------|------|------------|------|------|----------------|
A|--10--|--10--|--10-10-10--|--10--|--10--|--10-10-10------|
F|--10--|--10--|--10-10-10--|--10--|--10--|--10-10-10------|
C|--8---|--0---|--8--8--8---|--8---|--0---|--8--8--8-------|
G|--8---|--0---|--0--0--0---|--8---|--0---|--10-10-10------|
C|------|------|------------|------|------|----------------|

      x10     x7
D|------|------|-------------------------------------------|
A|--10--|--10--|--10-10-10---------------------------------|
F|--10--|--10--|--10-10-10---------------------------------|
C|--8---|--0---|--8--8--8----------------------------------|
G|--8---|--0---|--10-10-10---------------------------------|
C|------|------|-------------------------------------------|

If you don't like that then you could always follow the intro
structure, however the sound difference isn't great due to the
distortion, but it matches the cd better:

Play this 3 times.
       x4     x6
D|------|------|-------------------------------------------|
A|--10--|--10--|--10-10-10-10-X-10-10-10-10-X-10-10-10-----|
F|--10--|--10--|--10-10-10-10-X-10-10-10-10-X-10-10-10-----|
C|--8---|--X---|--0--0--0--0--X-0--0--0--0--X-0--0--0------|
G|------|--10--|-(0)(0)(0)(0)-X(0)(0)(0)(0)-X(0)(0)(0)-----|
C|------|------|-------------------------------------------|

Ideally you could split this up so 1 guitar does one version an
the other does the one above.


VERSE ENDING:

Guitar 1: (Slight Distortion)

D|-8--8/10--10-10-10-10--10\8--8-8-8-8--8/10--10-10-10-10--|
A|-6--6/8----8--8--8--8---8\6--6-6-6-6--6/8----8--8--8--8--|
F|-7--7/9----9--9--9--9---9\7--7-7-7-7--7/9----9--9--9--9--|
C|---------------------------------------------------------|
G|---------------------------------------------------------|
C|---------------------------------------------------------|

D|-10\8--8-8-8-8--8/10--10-10-10-10--10\8--8--8/10--10~----|
A|--8\6--6-6-6-6--6/8---8--8--8--8----8\6--6--6/8---8~-----|
F|--9\7--7-7-7-7--7/9---9--9--9--9----9\7--7--7/9---9~-----|
C|---------------------------------------------------------|
G|---------------------------------------------------------|
C|---------------------------------------------------------|

Guitar 2: (Slight Distortion)
D|---------------------------------------------------------|
A|-13--13/15--15-15-15-15--15\13--13-13-13-13--13/15--15-15|
F|-10--10/12--12-12-12-12--12\10--10-10-10-10--10/12--12-12|
C|-12--12/14--14-14-14-14--14\12--12-12-12-12--12/14--14-14|
G|---------------------------------------------------------|
C|---------------------------------------------------------|

D|---------------------------------------------------------|
A|-15-15--15/13--13-13-13-13--13/15--15-15-15-15--15\13--13|
F|-12-12--12/10--10-10-10-10--10/12--12-12-12-12--12\10--10|
C|-14-14--14/12--12-12-12-12--12/14--14-14-14-14--14\14--14|
G|---------------------------------------------------------|
C|---------------------------------------------------------|

D|---------------------------------------------------------|
A|--13/15--15~---------------------------------------------|
F|--10/12--12~---------------------------------------------|
C|--12/14--14~---------------------------------------------|
G|---------------------------------------------------------|
C|---------------------------------------------------------|

Both guitars could stick to their parts or again they could
harmonize.



PRE-CHORUS:
[ Tab from: http://www.guitartabs.cc/tabs/l/lostprophets/for_sure_tab_ver_3.html ]
Guitar 1: with slightly dirty chorus effect
D|--8~-----5--5------5-------8~-------5~-------------------|
A|--6~-----3--3------3-------6~-------3~-------------------|
F|--7~-----5--5------5-------7~-------5~-------------------|
C|---------------------------------------------------------|
G|---------------------------------------------------------|
C|---------------------------------------------------------|

Guitar 2: with slightly dirty chorus effect
D|--13~-----10--10-----10-------13~-------10~--------------|
A|--10~-----7---7------7--------10~-------7~---------------|
F|--12~-----10--10-----10-------12~-------10~--------------|
C|---------------------------------------------------------|
G|---------------------------------------------------------|
C|---------------------------------------------------------|


CHORUS:

Both Guitars:						  x4
D|---------------------------------------------------------|
A|---------------------------------------------------------|
F|---------------------------------------------------------|
C|-8~-----------10~----------0~----------------------------|
G|-8~-----------10~----------0~----------------------------|
C|-8~-----------10~----------0~----------------------------|


Guitar 1: plays this while Guitar 2 repeats riff above x4. 
D|---------------------------------------------------------|
A|--------10------------10---------------10---------10-----|
F|--7---------7-----7-------7----7----7--------7-----------|
C|----10--------10------------10---10------------10--------|
G|---------------------------------------------------------|
C|---------------------------------------------------------|


D|---------------------------------------------------------|
A|-----------10----------------11----------10------------10|
F|--7--------------7----7----7-------7----------7-----7----|
C|----10-10----------10---10-----------10---------10-------|
G|---------------------------------------------------------|
C|---------------------------------------------------------|


D|---------------------------------------------------------|
A|----------------10---------------------------------------|
F|---7----7----7-------------------------------------------|
C|-----10---10------------------------8-----10----0--------|
G|------------------------------------8-----10----0--------|
C|------------------------------------8-----10----0--------|


REPEAT VERSE, VERSE (Heavy Part), PRE-CHORUS and CHORUS again.


BRIDGE:
 
. = quickly down-pick chord then plam mute it immediately after.

Guitar 1: with chorus effect + slight delay/echo near end
D|--8~----5--5------5-------8~------5--5-----5-------8~----|
A|--6~----3--3------3-------6~------3--3-----3-------6~----|
F|--7~----5--5------5-------7~------5--5-----5-------7~----|
C|---------------------------------------------------------|
G|---------------------------------------------------------|
C|---------------------------------------------------------|
   
D|--5--5------5-------8~------5.--5.--5.--5.--5.--5.-------|
A|--3--3------3-------6~------3.--3.--3.--3.--3.--3.-------|
F|--5--5------5-------7~------5.--5.--5.--5.--5.--5.-------|
C|---------------------------------------------------------|
G|---------------------------------------------------------|
C|---------------------------------------------------------|

Guitar 2: with chorus effect + slight delay/echo near end 
D|---------------------------------------------------------|
A|--13~---10--10------10------13~-----10--10-----10-----13~|
F|--10~---7---7-------7-------10~-----7---7------7------10~|
C|--12~---10--10------10------12~-----10--10-----10-----12~|
G|---------------------------------------------------------|
C|---------------------------------------------------------|

D|---------------------------------------------------------|
A|--10--10------10------13~----10.-10.-10.-10.-10.-10.-----|
F|--7---7-------7-------10~----7.--7.--7.--7.--7.--7.------|
C|--10--10------10------12~----10.-10.-10.-10.-10.-10.-----|
G|---------------------------------------------------------|
C|---------------------------------------------------------|


Both Guitars: Distortion (or, Guitar 1 could begin with 10p8 
			  while Guitar 2 begins with 8, and they
			  alternate)

		     x4  Palm Mute all of these:
D|--------------------|------------------------------------|
A|--------------------|------------------------------------|
F|--------------------|------------------------------------|
C|--10p8-8-8---8-8-8--|--8--8-8---8--8-8---8--8-8---8--8-8-|
G|--10p8-8-8---8-8-8--|--8--8-8---8--8-8---8--8-8---8--8-8-|
C|--10p8-8-8---8-8-8--|--8--8-8---8--8-8---8--8-8---8--8-8-|


CHORUS is repeated.

Easier if I re-write the Guitar 1 overlay again:

Guitar 1: (Slight Distortion)
D|---------------------------------------------------------|
A|--------10------------10---------------10---------10-----|
F|--7---------7-----7-------7----7----7--------7-----------|
C|----10--------10------------10---10------------10--------|
G|---------------------------------------------------------|
C|---------------------------------------------------------|


D|---------------------------------------------------------|
A|-----------10----------------11----------10------------10|
F|--7--------------7----7----7-------7----------7-----7----|
C|----10-10----------10---10-----------10---------10-------|
G|---------------------------------------------------------|
C|---------------------------------------------------------|


D|---------------------------------------------------------|
A|----------------10--------10---------10---------------10-|
F|---7----7----7------7--------7-----7-----7----7----7-----|
C|-----10---10----------10-------10----------10---10-------|
G|---------------------------------------------------------|
C|---------------------------------------------------------|


D|---------------------------------------------------------|
A|---------------------------------------------------------|
F|---------------------------------------------------------|
C|-10-10/12-12-12-12-12/14-14-14-14-14/15-15-15-15-15\10-10|
G|---------------------------------------------------------|
C|---------------------------------------------------------|


D|----------------10------10------10------10---------------|
A|---------------------------------------------------------|
F|--------------7-------7-------7-------7------------------|
C|-10-10-10--10------10------10------10------10-10/12-12-12|
G|---------------------------------------------------------|
C|---------------------------------------------------------|


D|---------------------------------------------------------|
A|---------------------------------------------------------|
F|---------------------------------------------------------|
C|-12-12/14-14-14-14-14/15-15-15-15-15\10-10-10-10-10--8~--|
G|-----------------------------------------------------8~--|
C|-----------------------------------------------------8~--|


D|---------------------------------------------------------|
A|---------------------------------------------------------|
F|---------------------------------------------------------|
C|--10~-----0~---------------------------------------------|
G|--10~-----0~---------------------------------------------|
C|--10~-----0~---------------------------------------------|


Ok thats it, enjoy, Email with comments, questions, probs etc.

Tell me how im doing by rating this.
Comments