Lostprophets - For Sure Chords & Tabs

 

For Sure Chords & Tabs

Lostprophets Chords & Tabs

Version: 1 Type: Tab 0 ratings
1 star 2 stars 3 stars 4 stars 5 stars
comments

For Sure Tab

   
BY DANNY NIRVANA
100% CORRECT, TOOK ME A WHILE TO TAB
I WOULD RECOMMEND THE USE OF ALTERNATE PLUCKING.
DROP D
/= SLIDE
INTRO/VERSE:
e-----------------------------------------------------------
B--------10--------------------10---------------------------
G---10--------10---10----10-----------10-----10-------------
D-8----8----8----8------------------------------------------
A---------------------10----10-----10-----10----------------
D-----------------------------------------------------------

e-----------------------------------------------------------
B--------10----------8---8----------------------------------
G---10---------10------------10---10------------------------
D-0----0----0-----0----0---0----0---------------------------
A-----------------------------------------------------------
D-----------------------------------------------------------

e-----------------------------------------------------------
B--------10--------------------10---------------------------
G---10--------10---10----10-----------10-----10-------------
D-8----8----8----8------------------------------------------
A---------------------10----10-----10-----10----------------
D-----------------------------------------------------------

e-----------------------------------------------------------
B--------10----------8---11---------------------------------
G---10---------10------------10---10------------------------
D-0----0----0-----0----0---0----0---------------------------
A-----------------------------------------------------------
D-----------------------------------------------------------
[ Tab from: http://www.guitartabs.cc/tabs/l/lostprophets/for_sure_tab.html ]
CHORUS:LOT OF DISTORTION PLAY EACH CHORD 5 TIMES  X4
e-----------------------------------------------------------
B-----------------------------------------------------------
G-3----------7----------------------------------------------
D-3----5-----7----------------------------------------------
A-1----5-----5----------------------------------------------
D------5----------------------------------------------------

WITHOUT AS MUCH DISTORTION.   X4
e-----------------------------------------------------------
B-----------------------------------------------------------
G--3---5----------------------------------------------------
D--3---5---0------------------------------------------------
A--1---3---0------------------------------------------------
D----------0------------------------------------------------

THEN THEN THE OTHER GUITAR GOING:
e-----------------------------------------------------------
B--------10-------10----------------10----------------------
G-----------------------------------------------------------
D--12/10----12/10----12-12/10/12/10-------------------------
A-----------------------------------------------------------
D-----------------------------------------------------------

e-----------------------------------------------------------
B--------10-------10----------------11----------------------
G-----------------------------------------------------------
D--12/10----12/10----12-12/10/12/10-------------------------
A-----------------------------------------------------------
D-----------------------------------------------------------

PLAY AS MANY TIMES NESCESSARY THEN END THE CHORUS ON:
e-----------------------------------------------------------
B-----------------------------------------------------------
G--3----5---------------------------------------------------
D--3----5---0-----------------------------------------------
A--1----3---0-----------------------------------------------
D-----------0-----------------------------------------------
Comments