Lostprophets - For Sure Chords & Tabs

 

For Sure Chords & Tabs

Lostprophets Chords & Tabs

Version: 1 Type: Bass Tab 0 ratings
1 star 2 stars 3 stars 4 stars 5 stars
comments

For Sure Bass Tab

   
Band- Lostprophets
Song- For Sure

Tuning: C,A,D,G

Intro - no bass

Verse: (0:23)
G|--------------------------------(x2)--|
D|--------------------------------------|
A|--------------------------------------|
C|-0-88--5--12-----0-8h9p8--5--0--------|

Then... (0:44)
G|------------------------------------|
D|------------------------------------|
A|------------------------------------|
C|-0-0-0-0-0-0-0-12-12-12-12-12-12-12-|
[ Tab from: http://www.guitartabs.cc/tabs/l/lostprophets/for_sure_btab.html ]
Chorus:  (x2)    (0:47)
G|----------------------------------------|
D|----------------------------------------|
A|----------------------------------------|
C|-8-8-88-8-8-5-5-55-5-5-12-12-1212-12-12-|
               
G|----------------------------------------------|
D|----------------------------------------------|
A|----------------------------------------------|
C|-8-8-88-8-8-5-5-55-5-5-12-1212-12h14-14-15-15-|

Breakdown Part:  (or whatever you call it) (1:10)
G|-----------------------------------------|
D|--------------------------10-------------|
A|------------------------10---------------|
C|-00--00--0--00--00--0-12-----00-00-0-00r-|

Then... (1:22) 
G|----------|
D|----------|  (x8)
A|----------|          
C|-8-10-12--|

Bridge:  (i think)  (3:06)
G|---------------------------------(x3)--|
D|-----------10-10------------10---------|
A|---------10---------------10-----------|
C|-0-0--0-----------0-0--0---------------|

(3:31)
G|-----------------------------------------|
D|-----------------------------------------|
A|-----------------------------------------|
C|-00-00-00-00-00-00-00-00-022-022-022-022-|
Comments