Lostprophets - Directions Chords & Tabs

 

Directions Chords & Tabs

Lostprophets Chords & Tabs

Version: 1 Type: Tab 0 ratings
1 star 2 stars 3 stars 4 stars 5 stars
comments

Directions Tab

Band- Lostprophets
Song- Directions

Verse (no intro guitar)

Guitar 1 (Lee)
1-----/8-7---/8-7----/8-7-------/13-12--|
2---------------------------------------|
3--9------7------10------10-12----------|
4---------------------------------------|
5---------------------------------------|
6---------------------------------------|

Verse

Guitar 2 (Mike)
1--5------5------5------5------5------5------5------5--|
2------------------------------------------------------|
3------------------------------------------------------|
4------------------------------------------------------|
5------------------------------------------------------|
6------------------------------------------------------|

Chorus

Only 1 guitar in chorus
1----------------------------------------------------------------------------|
2----------------------------------------------------------------------------|
3--7h9-9---7h9-9-----9h10-10---9h10-10---12p10-10--12p10-10--10p9-9--10p9-9--|
4----------------------------------------------------------------------------|
5----------------------------------------------------------------------------|
6----------------------------------------------------------------------------|
[ Tab from: http://www.guitartabs.cc/tabs/l/lostprophets/directions_tab.html ]
Riff in second chorus
1-----------------------------------------------|----------|
2-----------------------------------------------|----------|
3--9------7--9-------7----------9---7-----------|-----/14--|
4-----10--------10------7--------------10-------|--7-------|
5-----------------------------------------------|----------|
6-----------------------------------------------|----------|

Just Repeat as needed until...

Scratching part with lyric \"Open the door\" (Guitar 2)

1--5-5--5-5--5-5-5-5--5-5--5-5--3-3--3-3--3-3-3-3--3-3--7-7--|
2--5-5--5-5--5-5-5-5--5-5--5-5--3-3--3-3--3-3-3-3--3-3--7-7--| (Repeat)
3------------------------------------------------------------|
4------------------------------------------------------------|
5------------------------------------------------------------|
6------------------------------------------------------------|

Behind scratching part (Guitar 1, find timimg)

1------------------------------|
2------------------------------|
3--9~---7~----10~---10~---12~--|
4------------------------------|
5------------------------------|
6------------------------------|

Ending 

1-----------------|
2-----------------|
3---------16------|
4------14---(17)--|
5----15-----------|
6--15-------------|
Comments