Lostprophets - Cry Me A River Chords & Tabs

 

Cry Me A River Chords & Tabs

Lostprophets Chords & Tabs

Version: 1 Type: Tab 0 ratings
1 star 2 stars 3 stars 4 stars 5 stars
comments

Cry Me A River Tab

-------------------------------------------------------------------------------
			     Cry Me A River - Lost Prophets
-------------------------------------------------------------------------------

Artist: Lost Prophets
Title:  Cry Me A River
Tuning: Dropped D (DADGBe) Low to high
Tabber: a_guy_called_richard@hotmail.com

I met Lee Gaze in Cardiff the other week and he was great, so i 
thought id come home and learn a load of Lost Prophets songs 
but couldn't find any for this song, so i figured it out myself.

Intro: (Updated: 01 June 2004) 
Pause slighty after the 8 on the very first part. You'll
need to listen to the song to hear what i mean. It only does 
this in the Intro, you play the rest of the song as tabbed later.

|---------7-----------6-----------7-----------6-| <- Cheers 'LessThanLuke'
|-------9-----------8-----------9-----------5---|    for pointing that last
|-----8-----------8-----------9-----------6-----|    6 out
|---6-----------8-----------9-----------6-------|  
|-------------6-----------7-----------4---------|
|-----------------------------------------------|

There is a sweet riff that the bass plays,
but it sounds just as good on guitar so here it is:
|-----------------------------------------------------------|
|-----------------------------------------------------------|
|-----------------------------------------------------11h13-|
|----------11-13----14-13-11----14-13-11----14-13-11--------|
|-11-13-14--------------------------------------------------|
|-----------------------------------------------------------|

Verse:
|---------7-----------6-----------7-----------6-|
|-------9-----------8-----------9-----------5---|
|-----8-----------8-----------9-----------6-----|  Repeat untill chorus
|---6-----------8-----------9-----------6-------|
|-6-----------6-----------7-----------4---------|
|-----------------------------------------------|


Chorus:

Rhythm:
|-----------------------------------------------------------------|
|-----------------------------------------------------------------|
|-----------------------------------------------------------------|
|-6-6-6-6-6-6-6-6-1-1-1-1-1-1-1-1-2-2-2-2-2-2-2-2-4-4-4-4-4-4-4-4-|
|-6-6-6-6-6-6-6-6-1-1-1-1-1-1-1-1-2-2-2-2-2-2-2-2-4-4-4-4-4-4-4-4-|
|-6-6-6-6-6-6-6-6-1-1-1-1-1-1-1-1-2-2-2-2-2-2-2-2-4-4-4-4-4-4-4-4-|

Lead: He plays sumfin slighly different in the chorus to the intro 
      but i dont know it, so i just play the intro
|---------7-----------------6-----------------7-----------------4---------|
|-------9---9-------------8---8-------------9---9-------------5---5-------|
|-----8-------8---------8-------8---------9-------9---------6-------6-----|
|---6-----------6-----8-----------8-----9-----------9-----6-----------6---|
|-6---------------6-6---------------6-7---------------7-4---------------4-|
|-------------------------------------------------------------------------|

2nd bit of lead: Strum all of these notes about 4 times
|---------------------------|
|---------------------------|
|-13--11-15--13--16--15--18-|  x2
|-x---x--x---x---x---x---x--|
|-11--9--13--11--14--13--16-|
|---------------------------|

3rd bit of lead: Still on the chorus mind. 
Play each note on the B string (16s and 14s) twice
|-----18----16---14---16---14------18----16----14----16---14-|
|-16------16---16---16---16----14------14----14----14---14---|
|------------------------------------------------------------|
|------------------------------------------------------------|
|------------------------------------------------------------|
|------------------------------------------------------------|
[ Tab from: http://www.guitartabs.cc/tabs/l/lostprophets/cry_me_a_river_tab.html ]
End of Chorus: Let the 14 ring for ages and then slide down
|---14~~~~~~~~~~~~~~~~-|
|-14-------------------|
|----------------------|
|----------------------|
|----------------------|
|----------------------|

Play the verse a few more times

Then play the chorus for the normal length

Then theres the bit before the solo:

Rhythm:
|-------------------------------------|
|-------------------------------------|
|-------------------------------------|
|-6--------1--------2--------4--------|
|-6--------1--------2--------4--------|
|-6--------1--------2--------4--------|

Lead:
|----------------|
|----------------|
|-13--15--16--18-|  x2
|-x---x---x---x--|
|-11--13--14--16-|
|----------------|

Then comes the kick ass solo...

Solo: Strum these notes super fast for the first this bit
|-11------------14-----16-------------------------16----------14-|
|-----------------------------14---14\----/12--12------12--12----|
|----------------------------------------------------------------|
|----------------------------------------------------------------|
|----------------------------------------------------------------|
|----------------------------------------------------------------|

|-----19p16-18p16-------19p16-18p16-------21p16-------------19p16-18p16-19p16------------|
|-16--------------19p16-------------19p16-------19p16-19p16-------------------19p16-19br-|
|----------------------------------------------------------------------------------------|
|----------------------------------------------------------------------------------------|
|----------------------------------------------------------------------------------------|
|----------------------------------------------------------------------------------------|

|-161616--181818--191919-212121--------------------------------------------|
|-------------------------------21-21br------------------------------------|
|--------------------------------------------------------------------------|
|--------------------------------------------------------------------------|
|--------------------------------------------------------------------------|
|--------------------------------------------------------------------------|

Backing for solo:
|-----------------------------------------------------|
|-----------------------------------------------------|
|-----------------------------------------------------|
|-666666666----1--1--1--1----222222222----2-2-2-4-4-4-|
|-666666666----1--1--1--1----222222222----2-2-2-4-4-4-|
|-666666666----1--1--1--1----222222222----2-2-2-4-4-4-|
PM             .  .  .  

Solo end:
|--------------------------------------------------------------------------|
|-21~~~~~--19~~~~~--16~~~~~--12~~~~~--9~~~~~~~~~~~--9~~~~~~~--7------------|
|--------------------------------------------------------------------------|
|--------------------------------------------------------------------------|
|--------------------------------------------------------------------------|
|--------------------------------------------------------------------------|

Then after the solo play a super heavy chorus and jump around alot more than usual


End on:

Rhythm: Play this note a few times while the lead plays
|------------|
|------------|
|------------|
|-6----------|
|-6----------|
|-6----------|

Lead:
|----18---18----18----18----18-----16---16----16----16----16-|
|-16----16----16----16----16----14----14----14----14----14---|
|------------------------------------------------------------|
|------------------------------------------------------------|
|------------------------------------------------------------|
|------------------------------------------------------------|

And thats it, play those last parts a few times and ur done.

Yet another awsome tab from The Legend
Comments