Lostprophets - Cry Me A River Chords & Tabs

 

Cry Me A River Chords & Tabs

Lostprophets Chords & Tabs

Version: 1 Type: Bass Tab 0 ratings
1 star 2 stars 3 stars 4 stars 5 stars
comments

Cry Me A River Bass Tab

   
Band- Lostprophets
Song- Cry Me A River

main riff:
G-----------------------------------------------------11h13-|
D----------11-13--13-14-13-11----14-12-11----14-13-11-------|
A-11-13-14--------------------14----------13----------------|
E-----------------------------------------------------------|

Verse 1 x6

G---------------------------------|
D---------------------------------|
A---------6-6-6-6-7-7-7-7-4-4-4-4-|
E-4-4-4-4-------------------------|

Chorus:
[ Tab from: http://www.guitartabs.cc/tabs/l/lostprophets/cry_me_a_river_btab.html ]
G--------------------------------------|
D--------------------------------------|
A--------------------------------------|
E-44444444-77777777-000000000-22222222-|

variation:

G-------------------------------------|
D-------------------------------------|
A----------------------------44444444-|
E-44444444-77777777-00000000----------|

Verse 2

G------------------------------------|
D------------------------------------|
A---------66666666-77777777-44444444-|
E-44444444---------------------------|

outro:

G-------------------------|
D-------------------------|
A-------------------------|
E-4-4-4-4-4-4-4-4-4-4-7-5-|
Comments