Lostprophets - Burn Burn Chords & Tabs

 

Burn Burn Chords & Tabs

Lostprophets Chords & Tabs

Version: 8 Type: Tab 0 ratings
1 star 2 stars 3 stars 4 stars 5 stars
comments

Burn Burn Tab

   
Guitar 1: DADGBe

Guitar 2: DADGBe 


Intro

Guitar 1: Clean

e|-----------------------------------|
B|-----------------------------------|
G|-----------------------------------|
D|-7-7--3-3--10-10--0-0-10h12--10/12-|
A|-7-7--3-3--10-10--0-0-10h12--10/12-|
D|-7-7--3-3--10-10--0-0-10h12--10/12-|

e|-----------------------------------X-X-X-X|
B|-----------------------------------X-X-X-X|
G|-----------------------------------X-X-X-X|
D|-7-7--3-3--10-10--0-0-10h12--10/12-X-X-X-X|
A|-7-7--3-3--10-10--0-0-10h12--10/12-X-X-X-X|
D|-7-7--3-3--10-10--0-0-10h12--10/12-X-X-X-X|

Guitars 1 & 2: Distortion

e|-----------------------------------|
B|-----------------------------------|
G|-----------------------------------|
D|-7-7--3-3--10-10--0-0-10h12--10/12-|
A|-7-7--3-3--10-10--0-0-10h12--10/12-|
D|-7-7--3-3--10-10--0-0-10h12--10/12-|

e|----------------------X-X-X-X|
B|----------------------X-X-X-X|
G|----------------------X-X-X-X|
D|-7-7--3-3--10-10--0-0-X-X-X-X|
A|-7-7--3-3--10-10--0-0-X-X-X-X|
D|-7-7--3-3--10-10--0-0-X-X-X-X|

Verse (guitar 2 dosen't come in until later in the verse)

Guitar 1: Clean

Where do I begin

e|-----------------------|
B|-----------------------|
G|-----------------------|
D|-7-7--3-3--10-10--0-0--|
A|-7-7--3-3--10-10--0-0--|
D|-7-7--3-3--10-10--0-0--|

Guitar 1: Clean

With this life we're living in

e|-----------------------------------|
B|-----------------------------------|
G|-----------------------------------|
D|-7-7--3-3--10-10--0-0-10h12--10/12-|
A|-7-7--3-3--10-10--0-0-10h12--10/12-|
D|-7-7--3-3--10-10--0-0-10h12--10/12-|

Guitar 1: Clean

Market youth the uniform

e|-----------------------|
B|-----------------------|
G|-----------------------|
D|-7-7--3-3--10-10--0-0--|
A|-7-7--3-3--10-10--0-0--|
D|-7-7--3-3--10-10--0-0--|

Guiatr 1: Clean

make us all fit in

e|-----------------------------------|
B|-----------------------------------|
G|-----------------------------------|
D|-7-7--3-3--10-10--0-0-10h12--10/12-|
A|-7-7--3-3--10-10--0-0-10h12--10/12-|
D|-7-7--3-3--10-10--0-0-10h12--10/12-|

But do you think

Guitar 1: Clean

e|-----------------------|
B|-----------------------|
G|-----------------------|
D|-7-7--3-3--10-10--0-0--|
A|-7-7--3-3--10-10--0-0--|
D|-7-7--3-3--10-10--0-0--|

Guitar 2: Distortion

e|-----------------|
B|-----------------|
G|-14-14--14-14-14-|
D|--x--x---x--x--x-|
A|-12-12--12-12-12-|
D|-----------------|

that we're that blind

Guitar 1: Clean

e|-----------------------------------|
B|-----------------------------------|
G|-----------------------------------|
D|-7-7--3-3--10-10--0-0-10h12--10/12-|
A|-7-7--3-3--10-10--0-0-10h12--10/12-|
D|-7-7--3-3--10-10--0-0-10h12--10/12-|

Guitar 2: Distortion

e|-----------------|
B|-----------------|
G|-14-14--14-14-14-|
D|--x--x---x--x--x-|
A|-12-12--12-12-12-|
D|-----------------|

That we can't see

Guitar 1: Clean

e|-----------------------|
B|-----------------------|
G|-----------------------|
D|-7-7--3-3--10-10--0-0--|
A|-7-7--3-3--10-10--0-0--|
D|-7-7--3-3--10-10--0-0--|

Guitar 2: Distortion

e|-----------------|
B|-----------------|
G|-14-14--14-14-14-|
D|--x--x---x--x--x-|
A|-12-12--12-12-12-|
D|-----------------|

through all your lies

Guitar 1: Clean

e|-----------------------------------|
B|-----------------------------------|
G|-----------------------------------|
D|-7-7--3-3--10-10--0-0-10h12--10/12-|
A|-7-7--3-3--10-10--0-0-10h12--10/12-|
D|-7-7--3-3--10-10--0-0-10h12--10/12-|

Guitar 2: Distortion

e|-----------------|
B|-----------------|
G|-14-14--14-14-14-|
D|--x--x---x--x--x-|
A|-12-12--12-12-12-|
D|-----------------|

'Cause it's no good

Guitar 1: Distortion

e|------|
B|------|
G|------|
D|------|
A|------|
D|-16/--|

Chorus


Burn, burn the station
We'll burn it down

Guitars 1 & 2: Distortion

e|-----------------------------------|
B|-----------------------------------|
G|-----------------------------------|
D|-7-7--3-3--10-10--0-0-10h12--10/12-|
A|-7-7--3-3--10-10--0-0-10h12--10/12-|
D|-7-7--3-3--10-10--0-0-10h12--10/12-|

Burn, burn the truth
Enjoy the flames

Guitars 1 & 2: Distortion

e|----------------------X-X-X-X|
B|----------------------X-X-X-X|
G|----------------------X-X-X-X|
D|-7-7--3-3--10-10--0-0-X-X-X-X|
A|-7-7--3-3--10-10--0-0-X-X-X-X|
D|-7-7--3-3--10-10--0-0-X-X-X-X|

Enjoy the flames
In celebration

Guitars 1 & 2: Distortion

e|-----------------------------------|
B|-----------------------------------|
G|-----------------------------------|
D|-7-7--3-3--10-10--0-0-10h12--10/12-|
A|-7-7--3-3--10-10--0-0-10h12--10/12-|
D|-7-7--3-3--10-10--0-0-10h12--10/12-|

Enjoy the sound
For us, for them, for you

Guitars 1 & 2: Distortion

e|----------------------X-X-X-X|
B|----------------------X-X-X-X|
G|----------------------X-X-X-X|
D|-7-7--3-3--10-10--0-0-X-X-X-X|
A|-7-7--3-3--10-10--0-0-X-X-X-X|
D|-7-7--3-3--10-10--0-0-X-X-X-X|

Verse 2 

During this part of the verse Guitars 1 and 2 don't play anything

I know that i've been told
My integrity was sold
Prized and placed upon a shelf 
It's worth its weight in gold

But do you think

Guitar 1: Clean

e|---------------|
B|---------------|
G|-----14-----14-|
D|---------------|
A|--12-----12----|
D|---------------|

we've lost our minds

Guitar 1: Clean

e|---------------|
B|---------------|
G|-----14-----14-|
D|---------------|
A|--12-----12----|
D|---------------|

Yeah we can see

Guitar 1: Clean

e|---------------|
B|---------------|
G|-----12-----12-|
D|---------------|
A|--10-----10----|
D|---------------|

through all your lies: Clean

e|---------------|
B|---------------|
G|-----14-----14-|
D|---------------|
A|--12-----12----|
D|---------------|

'Cause it's no good

Guitar 1: Distortion

e|------|
B|------|
G|------|
D|------|
A|------|
D|-16/--|

Chorus Distortion

Burn, burn the station
We'll burn it down

Guitars 1 & 2: Distortion

e|-----------------------------------|
B|-----------------------------------|
G|-----------------------------------|
D|-7-7--3-3--10-10--0-0-10h12--10/12-|
A|-7-7--3-3--10-10--0-0-10h12--10/12-|
D|-7-7--3-3--10-10--0-0-10h12--10/12-|

Burn, burn the truth
Enjoy the flames

Guitars 1 & 2: Distortion

e|----------------------X-X-X-X|
B|----------------------X-X-X-X|
G|----------------------X-X-X-X|
D|-7-7--3-3--10-10--0-0-X-X-X-X|
A|-7-7--3-3--10-10--0-0-X-X-X-X|
D|-7-7--3-3--10-10--0-0-X-X-X-X|

Enjoy the flames
In celebration

Guitars 1 & 2: Distortion

e|-----------------------------------|
B|-----------------------------------|
G|-----------------------------------|
D|-7-7--3-3--10-10--0-0-10h12--10/12-|
A|-7-7--3-3--10-10--0-0-10h12--10/12-|
D|-7-7--3-3--10-10--0-0-10h12--10/12-|

Enjoy the sound
For us, for them, for you

Guitars 1 & 2: Distortion

e|----------------------X-X-X-X|
B|----------------------X-X-X-X|
G|----------------------X-X-X-X|
D|-7-7--3-3--10-10--0-0-X-X-X-X|
A|-7-7--3-3--10-10--0-0-X-X-X-X|
D|-7-7--3-3--10-10--0-0-X-X-X-X|

Bridge

YEAH!!

Guitar 1: distortion

e|-----------------------------------------------------------------|
B|-----------------------------------------------------------------|
G|---------------------------------7-7-7-5-5-5-7-7-7-5-5-5-7-7-5-5-|
D|-7-7-7-5-5-5-7-7-7-5-5-5-7-7-5-5---------------------------------|
A|-----------------------------------------------------------------|
D|-----------------------------------------------------------------|

e|------------------------------------------------------------------|
B|-5-5-5-8-8-8-5-5-5-8-8-8-5-5-8-8--8-8-8-5-5-5-8-8-8-5-5-5-8-8-5-5-|
G|------------------------------------------------------------------|
D|------------------------------------------------------------------|
A|------------------------------------------------------------------|
D|------------------------------------------------------------------|

Guitar 2: Distortion

e|-----------------|
B|-----------------|
G|-14-14--14-14-14-|
D|--x--x---x--x--x-|
A|-12-12--12-12-12-|
D|-----------------|
[ Tab from: http://www.guitartabs.cc/tabs/l/lostprophets/burn_burn_tab_ver_8.html ]
HEY HEY HEY HEY!!!

Guitar 1: distortion

Fast strumming

e|-----------------------------------------------------------------|
B|-----------------------------------------------------------------|
G|-9-9-9-9-9-9-9-9-7-7-7-7-7-7-7-7-5-5-5-5-5-5-5-5-4-4-4-4-4-4-4-4-|
D|-x-x-x-x-x-x-x-x-x-x-x-x-x-x-x-x-x-x-x-x-x-x-x-x-x-x-x-x-x-x-x-x-|
A|-7-7-7-7-7-7-7-7-5-5-5-5-5-5-5-5-3-3-3-3-3-3-3-3-2-2-2-2-2-2-2-2-|
D|-----------------------------------------------------------------|

Guitar 2: Distortion (Play each note 8 times)

Fast plucking


e|------------|
B|------------|
G|------------|
D|------------|
A|------------|
D|-14-12-10-9-|

Guitars 1 & 2: Distortion

e|-------------0~-|
B|-------------3~-|
G|----------5--2~-|
D|-7--0--3--5--0~-|
A|-7--0--3--3--0~-|
D|-7--0--3-----0~-|


Burn, burn the truth, the lies, the news

Guitar 2: distortion

e|-----------------|
B|-----------------|
G|-14-14--14-14-14-|
D|--x--x---x--x--x-|
A|-12-12--12-12-12-|
D|-----------------|


Burn, burn the life, that you can choose

Guitar 2: Distortion

e|-----------------|
B|-----------------|
G|-14-14--14-14-14-|
D|--x--x---x--x--x-|
A|-12-12--12-12-12-|
D|-----------------|

Burn, burn the hate, that gets, you through

Guitar 2: Distortion

e|-----------------|
B|-----------------|
G|-14-14--14-14-14-|
D|--x--x---x--x--x-|
A|-12-12--12-12-12-|
E|-----------------|

Burn, burn for us, for them, for you

Guitar 2: Distortion

e|-----------------|
B|-----------------|
G|-14-14--14-14-14-|
D|--x--x---x--x--x-|
A|-12-12--12-12-12-|
D|-----------------|

Burn, burn for us, for them, for you

Guitar 1: Clean

e|-----------------------|
B|-----------------------|
G|-----------------------|
D|-7-7--3-3--10-10--0-0--|
A|-7-7--3-3--10-10--0-0--|
D|-7-7--3-3--10-10--0-0--|


Guitar 2: Distortion

e|-----------------|
B|-----------------|
G|-14-14--14-14-14-|
D|--x--x---x--x--x-|
A|-12-12--12-12-12-|
D|-----------------|

Burn, burn for us, for them, for you

Guitar 1: Clean

e|----------------------------------|
B|----------------------------------|
G|----------------------------------|
D|-7-7--3-3--10-10--0-0-10h12--10/12|
A|-7-7--3-3--10-10--0-0-10h12--10/12|
D|-7-7--3-3--10-10--0-0-10h12--10/12|


Guitar 2: Distortion

e|-----------------|
B|-----------------|
G|-14-14--14-14-14-|
D|--x--x---x--x--x-|
A|-12-12--12-12-12-|
D|-----------------|

Burn, burn for us, for them, for you

Guitar 1: Clean

e|-----------------------|
B|-----------------------|
G|-----------------------|
D|-7-7--3-3--10-10--0-0--|
A|-7-7--3-3--10-10--0-0--|
D|-7-7--3-3--10-10--0-0--|


Guitar 2: Distortion

e|-----------------|
B|-----------------|
G|-14-14--14-14-14-|
D|--x--x---x--x--x-|
A|-12-12--12-12-12-|
D|-----------------|

Burn, burn for us, for them, for you

Guitar 1: Clean

e|----------------------------------|
B|----------------------------------|
G|----------------------------------|
D|-7-7--3-3--10-10--0-0-10h12--10/12|
A|-7-7--3-3--10-10--0-0-10h12--10/12|
D|-7-7--3-3--10-10--0-0-10h12--10/12|

Guitar 2: Distortion

e|-----------------|
B|-----------------|
G|-14-14--14-14-14-|
D|--x--x---x--x--x-|
A|-12-12--12-12-12-|
D|-----------------|

Heavy part now

BURN, BURN FOR US, FOR THEM, FOR YOU!!

Guitars 1 & 2: Distortion

e|-----------------------------------|
B|-----------------------------------|
G|-----------------------------------|
D|-7-7--3-3--10-10--0-0-10h12--10/12-|
A|-7-7--3-3--10-10--0-0-10h12--10/12-|
D|-7-7--3-3--10-10--0-0-10h12--10/12-|


BURN, BURN FOR US, FOR THEM, FOR YOU!!

Guitars 1 & 2: Distortion

e|----------------------X-X-X-X|
B|----------------------X-X-X-X|
G|----------------------X-X-X-X|
D|-7-7--3-3--10-10--0-0-X-X-X-X|
A|-7-7--3-3--10-10--0-0-X-X-X-X|
D|-7-7--3-3--10-10--0-0-X-X-X-X|

BURN, BURN FOR US, FOR THEM, FOR YOU!!

Guitars 1 & 2: Distortion

e|-----------------------------------|
B|-----------------------------------|
G|-----------------------------------|
D|-7-7--3-3--10-10--0-0-10h12--10/12-|
A|-7-7--3-3--10-10--0-0-10h12--10/12-|
D|-7-7--3-3--10-10--0-0-10h12--10/12-|

BURN, BURN FOR US, FOR THEM, FOR YOU!!

Guitars 1 & 2: Distortion

e|----------------------X-X-X-X|
B|----------------------X-X-X-X|
G|----------------------X-X-X-X|
D|-7-7--3-3--10-10--0-0-X-X-X-X|
A|-7-7--3-3--10-10--0-0-X-X-X-X|
D|-7-7--3-3--10-10--0-0-X-X-X-X|



CAUSE IT'S NO GOOD!
Burn, burn the station
WE'LL BURN IT DOWN!

Guitars 1 & 2: Distortion

e|-----------------------------------|
B|-----------------------------------|
G|-----------------------------------|
D|-7-7--3-3--10-10--0-0-10h12--10/12-|
A|-7-7--3-3--10-10--0-0-10h12--10/12-|
D|-7-7--3-3--10-10--0-0-10h12--10/12-|

Burn, burn the truth
ENJOY THE FLAMES!

Guitars 1 & 2: Distortion

e|----------------------X-X-X-X|
B|----------------------X-X-X-X|
G|----------------------X-X-X-X|
D|-7-7--3-3--10-10--0-0-X-X-X-X|
A|-7-7--3-3--10-10--0-0-X-X-X-X|
D|-7-7--3-3--10-10--0-0-X-X-X-X|

ENJOY THE FLAMES!
In celebration

Guitars 1 & 2: Distortion

e|-----------------------------------|
B|-----------------------------------|
G|-----------------------------------|
D|-7-7--3-3--10-10--0-0-10h12--10/12-|
A|-7-7--3-3--10-10--0-0-10h12--10/12-|
D|-7-7--3-3--10-10--0-0-10h12--10/12-|

ENJOY THE SOUND
For us, for them, for you

Guitars 1 & 2: Distortion

e|----------------------X-X-X-X|
B|----------------------X-X-X-X|
G|----------------------X-X-X-X|
D|-7-7--3-3--10-10--0-0-X-X-X-X|
A|-7-7--3-3--10-10--0-0-X-X-X-X|
D|-7-7--3-3--10-10--0-0-X-X-X-X|


Burn, burn the station
WE'LL BURN IT DOWN!

Guitars 1 & 2: Distortion

e|-----------------------------------|
B|-----------------------------------|
G|-----------------------------------|
D|-7-7--3-3--10-10--0-0-10h12--10/12-|
A|-7-7--3-3--10-10--0-0-10h12--10/12-|
D|-7-7--3-3--10-10--0-0-10h12--10/12-|

Burn, burn the truth
ENJOY THE FLAMES!

Guitars 1 & 2: Distortion

e|----------------------X-X-X-X|
B|----------------------X-X-X-X|
G|----------------------X-X-X-X|
D|-7-7--3-3--10-10--0-0-X-X-X-X|
A|-7-7--3-3--10-10--0-0-X-X-X-X|
D|-7-7--3-3--10-10--0-0-X-X-X-X|

ENJOY THE FLAMES!
In celebration

Guitars 1 & 2: Distortion

e|-----------------------------------|
B|-----------------------------------|
G|-----------------------------------|
D|-7-7--3-3--10-10--0-0-10h12--10/12-|
A|-7-7--3-3--10-10--0-0-10h12--10/12-|
D|-7-7--3-3--10-10--0-0-10h12--10/12-|

ENJOY THE SOUND!

For us, for them, for you

Guitars 1 & 2: Distortion

e|----------------------X-X-X-X|
B|----------------------X-X-X-X|
G|----------------------X-X-X-X|
D|-7-7--3-3--10-10--0-0-X-X-X-X|
A|-7-7--3-3--10-10--0-0-X-X-X-X|
D|-7-7--3-3--10-10--0-0-X-X-X-X|

For us, for them, for you

Guitars 1 & 2: Distortion

e|-----------------------------------|
B|-----------------------------------|
G|-----------------------------------|
D|-7-7--3-3--10-10--0-0-10h12--10/12-|
A|-7-7--3-3--10-10--0-0-10h12--10/12-|
D|-7-7--3-3--10-10--0-0-10h12--10/12-|

For us, for them, for you

Guitars 1 & 2: Distortion

e|-----------------------------------|
B|-----------------------------------|
G|-----------------------------------|
D|-7-7--3-3--10-10--0-0-10h12--10/12-|
A|-7-7--3-3--10-10--0-0-10h12--10/12-|
D|-7-7--3-3--10-10--0-0-10h12--10/12-|

For us, for them, for you

Guitars 1 & 2: Distortion

e|-----------------------------------|
B|-----------------------------------|
G|-----------------------------------|
D|-7-7--3-3--10-10--0-0-10h12--10/12-|
A|-7-7--3-3--10-10--0-0-10h12--10/12-|
D|-7-7--3-3--10-10--0-0-10h12--10/12-|

For us, for them, for you

Guitars 1 & 2: Distortion

e|-----------------------------------|
B|-----------------------------------|
G|-----------------------------------|
D|-7-7--3-3--10-10--0-0-10h12--10/12-|
A|-7-7--3-3--10-10--0-0-10h12--10/12-|
D|-7-7--3-3--10-10--0-0-10h12--10/12-|

Guitars 1 & 2: Distortion

|-------------0~-|
|-------------3~-|
|----------5--2~-|
|-7--0--3--5--0~-|
|-7--0--3--3--0~-|
|-7--0--3-----0~-|
Comments