Lostprophets - Burn Burn Chords & Tabs

 

Burn Burn Chords & Tabs

Lostprophets Chords & Tabs

Version: 6 Type: Tab 0 ratings
1 star 2 stars 3 stars 4 stars 5 stars
comments

Burn Burn Tab

Intro - Guitar 1 [Clean Tone]
|---------------------------|-3*-|
|---------------------------|-3*-|
|-2-2------5-5------5---5/7-|-3*-|
|-2-2-3-3--5-5-0-0--5---5/7-|-3*-|
|-0-0-3-3--3-3-0-0--3-0-3/5-|-3*-|
|-----3-3------0-0----0-----|-3*-|

Chorus - Guitar 1+2 [Distortion] ["Burn Burn the station.."]
|---------------------------|-------------|
|---------------------------|-------------|
|-2-2------5-5------5---5/7-|-------------|
|-2-2-3-3--5-5-0-0--5---5/7-|-3*-3*-3*-3*-|
|-0-0-3-3--3-3-0-0--3-0-3/5-|-3*-3*-3*-3*-|
|-----3-3------0-0----0-----|-3*-3*-3*-3*-|

Verse - Guitar 1 ["Where do I begin.."]
|------------------|---------|
|------------------|---------|
|-2-2------5-5-----|-5---5/7-|
|-2-2-3-3--5-5-0-0-|-5---5/7-|
|-0-0-3-3--3-3-0-0-|-3-0-3/5-|
|-----3-3------0-0-|---0-----|

Verse - Guitar 2 ["But do you think.."]
|-----------------|
|-----------------|
|-14-14--14-14-14-|
|--x--x---x--x--x-|
|-12-12--12-12-12-|
|-----------------|

Chorus

Verse 2 - Guitar 1 [Clean Tone] ["But do you think.."]
|----------------------------------------------------|
|---10-------------10---10--------8---8--------8---8-|
|-9--------------9----9---------9---9--------9---9---|
|----------------------------------------------------|
|----------------------------------------------------|
|----------------------------------------------------|

Verse 2 - Guitar 2 ["But do you think.."]
|-----------------------------------------------------------------------------|
|-----------------------------------------------------------------------------|
|-----------------------------------------------------------------------------|
|-----------------------------------------------------------------------------|
|-0-0-0-0-0-0-0-0-0-0-0-0-0-0-0-0-0-0-0-0-0-0-0-0-0-0-0-0-0-0-0-0-0-0-0-0-0-0-|
|-----------------------------------------------------------------------------|
[ Tab from: http://www.guitartabs.cc/tabs/l/lostprophets/burn_burn_tab_ver_6.html ]
Bridge - Guitar 1 ["Yeah!.."]
|-----------------------------------------------------------------|
|-----------------------------------------------------------------|
|---------------------------------7-7-7-5-5-5-7-7-7-5-5-5-7-7-5-5-|
|-7-7-7-5-5-5-7-7-7-5-5-5-7-7-5-5---------------------------------|
|-----------------------------------------------------------------|
|-----------------------------------------------------------------|

|------------------------------------------------------------------|
|-5-5-5-8-8-8-5-5-5-8-8-8-5-5-8-8--8-8-8-5-5-5-8-8-8-5-5-5-8-8-5-5-|
|------------------------------------------------------------------|
|------------------------------------------------------------------|
|------------------------------------------------------------------|
|------------------------------------------------------------------|

["Hey!, Hey!, Hey!"]
|-----------------|
|-----------------|
|-9tp-7tp-5tp-4tp-|
|-x---x---x---x---|
|-7tp-5tp-3tp-2pt-|
|-----------------|

Bridge - Guitar 2 ["Yeah!.."]
|-----------------|
|-----------------|
|-14-14--14-14-14-|
|--x--x---x--x--x-|
|-12-12--12-12-12-|
|-----------------|

["Hey!, Hey!, Hey!"]
|--------------------|
|--------------------|
|--------------------|
|--------------------|
|--------------------|
|-14tp-12tp-10tp-9tp-|
PM .    .    .   .

Fill
|-------------0~-|
|-------------3~-|
|----------5--2~-|
|-7--0--3--5--0~-|
|-7--0--3--3--0~-|
|-7--0--3-----0~-|

Guitar 2 ["Burn burn the truth..."]
|-----------------|
|-----------------|
|-14-14--14-14-14-|
|--x--x---x--x--x-|
|-12-12--12-12-12-|
|-----------------|

Guitar 1 [Clean Tone] ["Burn burn for us..."]
|------------------|---------|
|------------------|---------|
|-2-2------5-5-----|-5---5/7-|
|-2-2-3-3--5-5-0-0-|-5---5/7-|
|-0-0-3-3--3-3-0-0-|-3-0-3/5-|
|-----3-3------0-0-|---0-----|

Guitar 1+2 [Distortion] ["Burn burn for us..."(screaming)]
|------------------|---------|
|------------------|---------|
|-2-2------5-5-----|-5---5/7-|
|-2-2-3-3--5-5-0-0-|-5---5/7-|
|-0-0-3-3--3-3-0-0-|-3-0-3/5-|
|-----3-3------0-0-|---0-----|

Chorus/Outro - Guitar 1+2 [Distortion]
|---------------------------|
|---------------------------|
|-2-2------5-5------5---5/7-|
|-2-2-3-3--5-5-0-0--5---5/7-|
|-0-0-3-3--3-3-0-0--3-0-3/5-|
|-----3-3------0-0----0-----|

Fill
|-------------0~-|
|-------------3~-|
|----------5--2~-|
|-7--0--3--5--0~-|
|-7--0--3--3--0~-|
|-7--0--3-----0~-|
Comments