Lostprophets - Burn Burn Chords & Tabs

 

Burn Burn Chords & Tabs

Lostprophets Chords & Tabs

Version: 5 Type: Tab 0 ratings
1 star 2 stars 3 stars 4 stars 5 stars
comments

Burn Burn Tab

   
--------------------------------------------------------------------------
			     BURN BURN -- LOST PROPHETS
----------------------------------------------------------------------------
Tabbed by:Adam Smith
Email:Gameshark4@hotmail.com

Tuning:Drop-D (D,A,D,G,B,E)

The new ablum uses Drop D instead of Drop C which was used mostly
on Fake sound there last ablum

After the main riff play the different variations on the verse's in turn 


Main riff
e|--------------------------------------------------------------------------
B|--------------------------------------------------------------------------
G|--------------------------------------------------------------------------
D|-7-7---3-3---x---10--10--0--0--10--0--10-/--12---x----7--7---3--3--x-10---
A|-7-7---3-3---x---10--10--0--0--10--0--10-/--12---x----7--7---3--3--x-10---
E|-7-7---3-3---x---10--10--0--0--10--0--10-/--12---x----7--7---3--3--x-10---

Play this the first time 
e|--------------------------------------------------------------------------
B|--------------------------------------------------------------------------
G|--------------------------------------------------------------------------
D|--10---0--0-----x--0--0---------------------------------------------------
A|--10---0--0-----x--0--0---------------------------------------------------
E|--10---0--0-----x--0--0---------------------------------------------------
[ Tab from: http://www.guitartabs.cc/tabs/l/lostprophets/burn_burn_tab_ver_5.html ]
Play this the second time
e|--------------------------------------------------------------------------
B|--------------------------------------------------------------------------
G|--------------------------------------------------------------------------
D|-10----0--0-------------------0-------------------------------------------
A|-10----0--0-------------------0-------------------------------------------
E|-10----0--0----4*--4*--4*--4*---------------------------------------------


e|--------------------------------------------------------------------------
B|--------------------------------------------------------------------------
G|--------------------------------------------------------------------------
D|-10----0--0---------------------------------------------------------------
A|-10----0--0---------------------------------------------------------------
E|-10----0--0-----5*--5*--5*--5*--------------------------------------------

Where do I begin, with this life we're living in
Market youth their uniform, make us all fit in
But do you think, that we're that blind?
That we can't see through all your lies?

[chorus:]
Cause if it's no good
Burn burn the stations
We'll burn it down
Burn burn the truth
Enjoy the flames
In celebration
Enjoy the sound
For us, for them, for you

I know that I've been told
My intergrity was sold
Price and placed upon the shelf
It's worth it's weight in gold
But do you think we've lost our minds?
Yeah we can see through all your lies?

[chorus]

Burn burn the truth the lies the news
Burn burn the life that you cant choose
Burn burn the hate that gets you through
Burn burn for us, for them, for you [x4]

Cause if it's no good
Burn burn the stations
We'll burn it down
Burn burn the truth
Enjoy the flames
In celebration
Enjoy the sound

For us, for them, for you [x5]
Comments