Lostprophets - B Side Chords & Tabs

 

B Side Chords & Tabs

Lostprophets Chords & Tabs

Version: 1 Type: Bass Tab 0 ratings
1 star 2 stars 3 stars 4 stars 5 stars
comments

B Side Bass Tab

   
Band- Lostprophets
Song- B-Side

After the Guitar intro
G|-------------------------------------||
D|---(333)-(555)--(777)----------------||
A|-------------------------------------||
D|-11----33-----55-----77-8-7-3--------||

G|-------------------------------||
D|---(333)-(555)--(777)-77-8-7---||
A|-----------------------------8-||
D|-11----33-----55---------------||
[ Tab from: http://www.guitartabs.cc/tabs/l/lostprophets/b_side_btab.html ]
All i have to say is this is a really
cool song.
before the verse
G|----------------------------------------||
D|----------------------------------------||
A|----------------------------------------||
D|-1---3---1------------------------------||

G|-------------------------------------||
D|-------------------------------------||
A|-------------------------------------||
D|-1--3--5--3--1-----------------------||

I couldnt figure out the stuff for the verse but the is the
chorus and everything else.
   This part is during the break right before the
guitar plays the intro again.
G|-------------------------------------||
D|-------------------------------------||
A|-------------------------------------||
D|-1-1-1-1-1-1-1-1-1-333---------------||
Comments