Lostprophets - Awkward Chords & Tabs

 

Awkward Chords & Tabs

Lostprophets Chords & Tabs

Version: 1 Type: Tab 0 ratings
1 star 2 stars 3 stars 4 stars 5 stars
comments

Awkward Tab

Lostprophets
Awkward
This sounds good so im sure its about 90% correct
Tuning (EBGDAE)
[ Tab from: http://www.guitartabs.cc/tabs/l/lostprophets/awkward_tab.html ]
Intro 1 (a few times)
e|-------------------------------------------------------
B|-------------------------------------------------------
G|-------------------------------------------------------
D|-------------------------------------------------------
A|-------------------------------------------------------
E|8-8-8-8-9-8-8-8-8-9-8-8-8-8-9-8-8-8-8-9-8-8-8-8-9------
Then this a few times
Intro 2
e|-------------------------------------------------------
B|-------------------------------------------------------
G|-------------------------------------------------------
D|-------------------------------------------------------
A|10-10-10-10-10-10-10-10-x-x-x-x-x-x--------------------
E|8--8--8--8--9--8--8--8--x-x-x-x-x-x--------------------

then back to intro 1 a few times and then intro 2 a few times.  Reapeat The Above Bit A 
Few Times Till a small interlude which i havent tabbed out yet.
Then on to this alot later
Chorus (2:02)
Repeat alot        i don't know the background guitar
e|-------------------------------------------------------
B|-------------------------------------------------------
D|-------------------------------------------------------
G|-------------------------------------------------------
A|10~~~-----5~~~-------7~~~-----13~~~--------------------
E|8~~~~-----3~~~-------5~~~-----11~~~--------------------

This is it
my first tab 
i havent tabbed out the backgrouind guitar cuz i dont know it.
its hard to hear but if you listen you'll hear it
Hope this helps you
XxWarlockPunkxX
Comments