Lostprophets - Awkward Chords & Tabs

 

Awkward Chords & Tabs

Lostprophets Chords & Tabs

Version: 1 Type: Bass Tab 0 ratings
1 star 2 stars 3 stars 4 stars 5 stars
comments

Awkward Bass Tab

Lost Prophets - Awkward
Submitted By: dragonninja
EMail: dragon_ninja666@hotmail.com


This should be exactly right...
Fast Clean intro
|--------------------------------------------|
|--------------------------------------------|
|--------------------------------------------|
|--------------------------------------------|
|-0-0-0-1-0-0-0-0-3-0-0-0-0-1-0-0-0-0-3-0-0--|
|--------------------------------------------|

Heavy Break
|--------------------------------------------|
|--------------------------------------------|
|--------------------------------------------|
|-0-0-0-1-0-0-0-0-1-0-0-0-1-0-0-0-0-1--------|
|-0-0-0-1-0-0-0-0-1-0-0-0-1-0-0-0-0-1--------|
|-0-0-0-1-0-0-0-0-1-0-0-0-1-0-0-0-0-1--------|

Play again but pause after each note has been played

Verse (very slight distortion)
|--------------------------------------------|
|--------------------------------------------|
|--------------------------------------------|
|--------------------------------------------|
|-000001-0-0-000100001-000001-0-0-000100001--| - guitar 1 plays this
|-000001-0-0-000100001-000001-0-0-000100001--| - guitar plays this quietly
[ Tab from: http://www.guitartabs.cc/tabs/l/lostprophets/awkward_btab.html ]
interlude
|--------------------------------------------|
|--------------------------------------------|
|--------------------------------------------|
|-0-0-0-1-0-0-0-0-1-0-0-0-1-0-0-0-0-1--------|
|-0-0-0-1-0-0-0-0-1-0-0-0-1-0-0-0-0-1--------|
|-0-0-0-1-0-0-0-0-1-0-0-0-1-0-0-0-0-1--------|

Break
|--------------------------------------------|
|--------------------------------------------|
|--------------------------------------------|
|-0----3----1--------------------------------|
|-0----3----1--------------------------------|
|-0----3----1--------------------------------|

"I don't think so..."
|--------------------------------------------|
|--------------------------------------------|
|--------------------------------------------|
|-0-0-0-1-0-0-0-0-1-0-0-0-1-0-0-0-0-1--------|
|-0-0-0-1-0-0-0-0-1-0-0-0-1-0-0-0-0-1--------|
|-0-0-0-1-0-0-0-0-1-0-0-0-1-0-0-0-0-1--------|

"And now i save the world...."
|--------------------------------------------|
|--------------------------------------------|
|--------------------------------------------|
|-5---0---3---5------------------------------| Repeat
|-5---0---3---5------------------------------|
|-5---0---3---5------------------------------|

VERSE
HEAVY BREAK
"And now i save the world...." to finish.
Comments