Lostprophets - And She Told Me To Leave Chords & Tabs

 

And She Told Me To Leave Chords & Tabs

Lostprophets Chords & Tabs

Version: 1 Type: Bass Tab 0 ratings
1 star 2 stars 3 stars 4 stars 5 stars
comments

And She Told Me To Leave Bass Tab

Band- Lostprophets
Song- And She Told Me To Leave

I play some part in a higher octave, coz I only have a 4 string bass and Iím really lazy 
drop the tuning. Enjoy it!

Intro
G|----------------------|
D|-----------------7-8--|
A|--5------5/8-5--------|
E|----------------------|

Verse 1
G|-----------------------------------------------------------|
D|---7---7h87h87--7---7h87h87--7---7h87h87-------------------|
A|-5----5-------5----5-------5----5---------8---8h108h108h10-| X2
E|----------------------------------------6----6-------------|

G|-----7-7h9-------------7-7h9-------------7-7h9----------------------------|
D|---7--------7h87h87--7--------7h87h87--7--------7h87h87-------------------|
A|-5---------5-------5---------5-------5---------5---------8---8h108h108h10-|
E|-------------------------------------------------------6----6-------------|

Chorus 1
G|--------------------------------------7--------------7--------------7--------------|
D|---------------------------------------7--------------7--------------7-------------|
A|-555-----555-----555-------------555-5--3-3-3---555-5--3-3-3---555-5--3-3-3--------|
E|-----111-----111-----111-666-111--------------1--------------1--------------1-6--8-|

G|---------------------------------------------------------------------------------------|
D|---------------------------------------------------------------------------------------|
A|-5-5-35-35-5/75-5-5-35-35-5/75-8-7----8-7---5-5-35-35-5/75-5-5-35-35-5/75-8-7----8-7---|
E|-----------------------------------8------8-----------------------------------8------8-|

G|---------------------|
D|----------------7-8--|
A|-5------5/8-5--------|
E|---------------------|

Verse 2
G|-----------------------------------------------------------|
D|---7---7h87h87--7---7h87h87--7---7h87h87-------------------|
A|-5----5-------5----5-------5----5---------8---8h108h108h10-| X2
E|----------------------------------------6----6-------------|

G|-----7-7h9-------------7-7h9-------------7-7h9----------------------------|
D|---7--------7h87h87--7--------7h87h87--7--------7h87h87-------------------|
A|-5---------5-------5---------5-------5---------5---------8---8h108h108h10-|
E|-------------------------------------------------------6----6-------------|
[ Tab from: http://www.guitartabs.cc/tabs/l/lostprophets/and_she_told_me_to_leave_btab.html ]
Chorus 2
G|--------------------------------------7--------------7--------------7--------------|
D|---------------------------------------7--------------7--------------7-------------|
A|-555-----555-----555-------------555-5--3-3-3---555-5--3-3-3---555-5--3-3-3--------|
E|-----111-----111-----111-666-111--------------1--------------1--------------1-6--8-|

G|---------------------------------------------------------------------------------------|
D|---------------------------------------------------------------------------------------|
A|-5-5-35-35-5/75-5-5-35-35-5/75-8-7----8-7---5-5-35-35-5/75-5-5-35-35-5/75-8-7----8-7---|
E|-----------------------------------8------8-----------------------------------8------8-|

G|--------7---------------7----------------------------7---------------7---------------------|
D|-----5h7-------------5h7--------------------------5h7-------------5h7----------------------|
A|-5555----5555/75-5555----5555/75-8-7----8-7---5555----5555/75-5555----5555/75-8-7----8-7---|
E|-------------------------------------8------8-------------------------------------8------8-|

Interlude
G|--------------------------------------------------------------------------------|
D|--------10121212/1412101212-------10121212/1412101212-------10121212/1412101212-|
A|----1012----------------------1012----------------------1012--------------------|
E|-10------------------------10------------------------10-------------------------|

G|--------------------------------------------------------------------------------|
D|--------10121212/1412101212-------10121212/1412101212-------10121212/1412101212-|
A|----1012----------------------1012----------------------1012--------------------|
E|-10------------------------10------------------------10-------------------------|

G|---------------------------10h121210109-10-9h109-|
D|--------10121212/1412101212----------------------|
A|----1012-----------------------------------------|
E|-10----------------------------------------------|

Outro
G|----------------------------------------------------|
D|-----------------------------------------------1010-|
A|-------------------------1010-1010---1212-1212------| X4
E|-1010-1010-8-1010-1010-8-----------8----------------|

G|------------------------------------------------------|
D|-----------10-----------10-----------10-----------10--|
A|------------------------------------------------------|
E|-1010-1010----1010-1010----1010-1010----1010-1010-----|
(fade out)
Comments