Lost Prophets - To Hell We Ride Chords & Tabs

 

To Hell We Ride Chords & Tabs

Lost Prophets Chords & Tabs

Version: 1 Type: Tab 0 ratings
1 star 2 stars 3 stars 4 stars 5 stars
comments

To Hell We Ride Tab

This tab is a mixture of Rythym and Lead Guitar
as the song can easily b played with one guitar and
sound correct.
The verse and chorus are hard to distinguish so i've given them numbers.

Drop D Tuning DADGBe
Song is in F#.
Distortion throughout

Key:
~~  = Bend String
4h5 = Hammer on 4 to 5

Intro/Riff 1: Double Pick
|-------12----12----12----12-----12------12------12------12---|
|------9--9--9--9--9--9--9--9--10--10--10--10--10--10--10--10-|
|---11-----11----11----11----11------11------11------11-------|
|-------------------------------------------------------------|
|-------------------------------------------------------------|
|-------------------------------------------------------------|

Riff 2:
      Let Ring
|-----0------0------0-------------0------0------0------------|
|-----0------0------0-------------0------0------0------------|
|-----0------0------0-------------0------0------0------------|
|-2h4----2h4----2h4----2h4-2h4-2h4----2h4----2h4----2h4-2h4--|
|-2h4----2h4----2h4----2h4-2h4-2h4----2h4----2h4----2h4-2h4--|
|-2h4----2h4----2h4----2h4-2h4-2h4----2h4----2h4----2h4-2h4--|

Riff 3:
|------------|
|------------|
|------------|
|-0----2-----|
|-0----2-----|
|-0----2-----|


Verse/Riff 4:
|-------------------------------------------|
|-------------------------------------------|
|-------------------------------------------|
|--xx-2h4-xx-2h4-xx-2-xx-2h4-xx-2h4-xx-2----|
|--xx-2h4-xx-2h4-xx-2-xx-2h4-xx-2h4-xx-2----|
|--xx-2h4-xx-2h4-xx-2-xx-2h4-xx-2h4-xx-2----|x4

Rythym Guitar 0:36/Riff 5:
|-------------------------------|
|-------------------------------|
|-------------------------------|
|-4-4-4-0-0-0-9-9-9-5-5-5-------|
|-4-4-4-0-0-0-9-9-9-5-5-5-------|
|-4-4-4-0-0-0-9-9-9-5-5-5-------| x4
[ Tab from: http://www.guitartabs.cc/tabs/l/lost_prophets/to_hell_we_ride_tab.html ]
Lead Guitar 0:36/ Riff 6:
|-------------------------------|
|---5~~-------------------------|
|------7--6--7--6--4h6----------|
|-------------------------------|
|-------------------------------|
|-------------------------------| x4

Repeat first half of Riff 2.

(Chorus)
Riff 7:          Riff 1:
|--------------|--------|
|--------------|--------|
|--------------|--------|
|--0--2--4--7--|--0--2--|
|--0--2--4--7--|--0--2--|
|--0--2--4--7--|--0--2--| Leads back into riff 2, then riff 4, 
                          followed by 5 & 6. Then riff 7 and 2.

Then this (riff 8):
|-----12---12----12----12-------|
|--10----9------9----10---------|
|-------------11---11-----------|
|-------------------------------|
|-------------------------------|
|-------------------------------|

Then Riff 1. followed by:

|-12-12-12-12-12-12-12-12|12-12-12-12-12-12-12-12|12-12-12-12-12-12-12-12|12-12-12-12-12-12-12-12|
|--9--9--9--9--9--9--9--9|-9--9--9--9--9--9--9--9|10-10-10-10-10-10-10-10|10-10-10-10-10-10-10-10|
|-11-11-11-11-11-11-11-11|11-11-11-11-11-11-11-11|11-11-11-11-11-11-11-11|11-11-11-11-11-11-11-11|
|------------------------|-----------------------|-----------------------|-----------------------|
|------------------------|-----------------------|-----------------------|-----------------------|
|------------------------|-----------------------|-----------------------|-----------------------|

Similar to Riff 3
|-----------------------|
|-----------------------|
|-----------------------|
|--0--2--4--0---0--2----|
|--0--2--4--0---0--2----|
|--0--2--4--0---0--2----|

Outro/riff 9:
|------------------------------------|
|------------------------------------|
|------------------------------------|
|-2h3h4-4-4-4-4-44 2h3h4-4-4-4-4-44--|
|-2h3h4-4-4-4-4-44 2h3h4-4-4-4-4-44--|
|-2h3h4-4-4-4-4-44 2h3h4-4-4-4-4-44--|                                                   4
                                                                                         4
Then jus double pick fret 12 and 14 for the last 10 seconds and finish on a F#, which is 4. 

PLease rate this tab and my others.

Email if u wish: jak_d_lad@hotmail.com
Comments