Lost Prophets - Shinobi Vs Dragonija Chords & Tabs

 

Shinobi Vs Dragonija Chords & Tabs

Lost Prophets Chords & Tabs

Version: 1 Type: Bass Tab 1 rating
1 star 2 stars 3 stars 4 stars 5 stars
comments

Shinobi Vs Dragonija Bass Tab

Shinobi Vs Dragonija
Lost Prophets
Tuning--Dropped D: HightoLow--G,D,A,D
(See Side Notes Below)

Inrtro/Chorus--3x
G-------------------------------------------------------2~------2~---------4~--------4~--|
D-----5-4--------5-4----5-4-----------5-4------------------------------------------------|
A---7-----7-7-7-----7-7----7--7-7-7----------------------------------------------------|
D-----------------------------------------------5-5-5---5-5-5---7-7-7---7-7-7---------|

Verse1--2x
G------------------------------------------------------------------------------------------------------------------------------------|
D------------------------------------------------------------------------------------------------------------------------------------|
A------------------------------------------------------------------------------------------------------------------------------------|
D---7--7--7-7--7-7-7--7-7-7--7--7--7-7--7-7-7--7-7-7--5--5--5-5--5-5-5--5-5-5--4--4--4-4--4-4-4--4-4-4-|

Bridge--2x--with Flanger
G---------------------------------------------------------------|
D------------3--------------3---------7--7--------9--9-----|
A--3-5-0-3--5--3-5-0-3--5--5-7--5--7--7-9--7--9---|
D---------------------------------------------------------------|
[ Tab from: http://www.guitartabs.cc/tabs/l/lost_prophets/shinobi_vs_dragonija_btab.html ]
Chorus--2x
G-------------------------------------------------------2~------2~---------4~--------4~--|
D-----5-4--------5-4----5-4-----------5-4-----------------------------------------------|
A---7-----7-7-7-----7-7----7--7-7-7---------------------------------------------------|
D-----------------------------------------------5-5-5---5-5-5---7-7-7---7-7-7--------|

Verse--2x
G------------------------------------------------------------------------------------------------------------------------------------|
D------------------------------------------------------------------------------------------------------------------------------------|
A------------------------------------------------------------------------------------------------------------------------------------|
D---7--7--7-7--7-7-7--7-7-7--7--7--7-7--7-7-7--7-7-7--5--5--5-5--5-5-5--5-5-5--8--8--8-8--8-8-8--8-8-8-|

Bridge--2x
G---------------------------------------------------------------|
D------------3--------------3---------7--7--------9--9-----|
A--3-5-0-3--5--3-5-0-3--5--5-7--5--7--7-9--7--9---|
D---------------------------------------------------------------|

Interlude--1x
G-------------------------------|
D-------------------------------|
A-------------------------------|
D-7~~~~8~~~~5~~~~~7|
Outro--4x
G---------------------------------------------------|
D------5-4--------5-4----5-4-----------5-4----|
A--7-7----7-7-7-----7-7----7--7-7-7---------|
D---------------------------------------------------|

Intro/Chorus--3x
Verse1--2x
Bridge--2x--Flanger
Chorus--2x
Verse2--2x
Bridge--2x--Flanger
Interlude--1x
Guitar Solo--
Outro--4x

the begining of the bridge has a wrong note in it, but not many people can hear it, so don’t worry about it--comments, dumb questions: SmrtAssWhteBoy69  aight?
Comments