Lost Prophets - Shinobi Vs Dragon Ninja Chords & Tabs

 

Shinobi Vs Dragon Ninja Chords & Tabs

Lost Prophets Chords & Tabs

Version: 2 Type: Tab 1 rating
1 star 2 stars 3 stars 4 stars 5 stars
comments

Shinobi Vs Dragon Ninja Tab

   
Track : Shinobi Vs Dragon Ninja
Artist: Lost Prophets
Album : The Fake Sound Of Progress

Date  : 22/02/02
Author: Kris Bain
E-mail: Krisbain@hotmail.com

Tuning: C-G-C-F-A-D [Or E string down 4 steps all others 2]

Lets get going. All riffs are both guitars playing unless stated.

[**Introduction**]

[Clean Tone: No or Little Distortion]
[Time: 0:00]

D|--------------------------------------------------------------|
A|--------------------------------------------------------------|
F|--------------------------------------------------------------|
C|--------------------------------------------------------------|
G|--------------------------------------------------------------|
C|--0--0--15-14---0-0-0--15--14--0-0-0--15-14--0--0-0-0--15-14--|

Note: Most people in previous tabs I have seen have mistaken the Open C note for the same note
an Octave above (instead of 0, 12). This is incorrect.

[Time: 0:04]

D|---------------------------------------------------| 
A|-----------------------------------3~~--------3~~--|
F|---------0~~---------0~~-----------0~~--------0~~--|
C|---------------------------------------------------|
G|---------------------------------------------------|
C|--3-3-3-------3-3-3-------3h5-5-5-------5-5-5------|

[Change to Distortion]
[Time: 0:08]

D||--------------------------------------------------------------|
A||--------------------------------------------------------------|
F||o-------------------------------------------------------------|
C||o-------------------------------------------------------------|
G||--------------------------------------------------------------|
C||--0--0--15-14---0-0-0--15--14--0-0-0--15-14--0--0-0-0--15-14--|

D|----------------------------------------------------|| [x2]
A|-----------------------------------3~~--------3~~---||
F|---------0~~---------0~~-----------0~~--------0~~--o||
C|---------------------------------------------------o||
G|----------------------------------------------------||
C|--3-3-3-------3-3-3-------3h5-5-5-------5-5-5-------||

[**Verse**]

[Distortion]
[Time: 0:24]

D||----------------------------------------------------------------------|| [x2]
A||----------------------------------------------------------------------||
F||o--------------------------------------------------------------------o||
C||o--------------------------------------------------------------------o||
G||----------------------------------------------------------------------||
C||--0-0-0-0-0-0-000--0-0-0-0-0-0-000--3-3-3-3-3-3-333--2-2-2-2-2-2-232--||
     . . . . . . ...  . . . . . . ...  . . . . . . ...  . . . . . . ...  [palm mute]

[Change back to Clean Tone]
[Time: 0:39]

[First Riff]

D||------------------------------------------|--------5~------------------------------|
A||---6~-----6~-----6~----6~----6~----6~-----|-6~------------6~-------6~-----6~-------|
F||o-----5~-----5~----5~-----7~----7~----7~--|-----0~----0~------5h7------5------(0)--|
C||o-----------------------------------------|----------------------------------------|
G||------------------------------------------|----------------------------------------|
C||------------------------------------------|----------------------------------------|

[Second Riff]
[ Tab from: http://www.guitartabs.cc/tabs/l/lost_prophets/shinobi_vs_dragon_ninja_tab_ver_2.html ]
D||------------------------------------------|-5~----5~-----5~-----5~-----5~----5~----|
A||---6~-----6~-----6~----6~----6~----6~-----|----5~----5~-----5~-----6~-----6~----6~-|
F||o-----5~-----5~----5~-----7~----7~----7~--|----------------------------------------|
C||o-----------------------------------------|----------------------------------------|
G||------------------------------------------|----------------------------------------|
C||------------------------------------------|----------------------------------------|

[**Chorus**]

[Change to Distortion]
[Time: 0:55]

D||--------------------------------------------------------------|
A||--------------------------------------------------------------|
F||o-------------------------------------------------------------|
C||o-------------------------------------------------------------|
G||--------------------------------------------------------------|
C||--0--0--15-14---0-0-0--15--14--0-0-0--15-14--0--0-0-0--15-14--|

D|----------------------------------------------------|| [x2]
A|-----------------------------------3~~--------3~~---||
F|---------0~~---------0~~-----------0~~--------0~~--o||
C|---------------------------------------------------o||
G|----------------------------------------------------||
C|--3-3-3-------3-3-3-------3h5-5-5-------5-5-5-------||

[Back to Verse]

[**Riff Before The Break**]

[Time: 1:58]

[Guitar 1]

D|-----------------------|
A|-----------------------|
F|-----------------------|
C|--8~--0~--3~--0~--3~~--|
G|--8~--0~--3~--0~--3~~--|
C|--8~--0~--3~--0~--3~~--|
            * At This Point Guitar 2 plays this:

[Guitar 2]

D||-------------------------|| [x4]
A||---6~-----6~-----6~------||
F||o-----5~-----5~----5~---o||
C||o-----------------------o||
G||-------------------------||
C||-------------------------||


[**'Effect Break'**]

[Time: 2:12]

Note: A Good Effect to use at this point is either a Flange or Phaser
      I tend to use a phaser effect named Cycle on my Zoom Pedal

D||-----------------------------------------------|| [X4]
A||-----------------------------------------------||
F||o---------------------------------------------o||
C||o---------------------------------------------o||
G||-----------------------------------------------||
C||--0 0 0 0 00--0--0--000--0--0--000--0--0--000--||

After the above bar

[Change to Distortion]

D||-----|
A||-----|
F||-----|
C||-X-X-|
G||-X-X-|
C||-X-X-|

[**Outro**]

[Time: 2:28]

D||---------------------------------------------|| [x4]
A||---------------------------------------------||
F||--------------------------------------------o||
C||--0-0-3-2--0-0-0-3-2--0-0-0-3-2--0-000-3-2--o||
G||--0-0-3-2--0-0-0-3-2--0-0-0-3-2--0-000-3-2---||
C||--0-0-3-2--0-0-0-3-2--0-0-0-3-2--0-000-3-2---||

The Other Guitar plays the same riff with Phaser/Flange Effect [x2]

D|-------------------|
A|-------------------|
F|-------------------|
C|-------------------|
G|-------------------|
C|--0-0-0-0-0-0-000--|
    . . . . . . ...  [Palm Mute]

End. There you have it. The song order is below questions or comments e-mail me at
the above address.

-----------------
Intro Riff
Verse Riff
Chorus Riff
Verse Riff
Chorus Riff
Riff Before Break
Break Effect Riff
Outro
-----------------

Notation
********

  h  = hammer-on
  ~  = let note ring

||o = repeat bar start
||o

o|| = repeat bar finish
o||
Comments