Lost Prophets - Shinobi Vs Dragon Ninja Chords & Tabs

 

Shinobi Vs Dragon Ninja Chords & Tabs

Lost Prophets Chords & Tabs

Version: 1 Type: Tab 0 ratings
1 star 2 stars 3 stars 4 stars 5 stars
comments

Shinobi Vs Dragon Ninja Tab

Author/Artist: Lostprophets
Title: Shinobi Vs. Dragon Ninja
Album: The Fake Sound Of Progress
Transcribed by: Richard Armstrong
Email: Hydromaniac@hotmail.com

 Intro - play this clean x1 then w/distortion x2

    x1             x2               x1              x2           x2
------------|---------------|-----------------|------------|------------|
------------|---------------|-----------------|------------|------------|
------------|---------------|-----------------|------------|------------| ------------|---------------|-----------------|------------|--------10--| 
------------|---------------|-----------------|-------(08)-|--8-8-8-----|
-8-8-11-10--|--8-8-8-11-10--|--8-8-8-8-11-10--|--11-11-13--|------------|
(The 08 sounds better if you let it ring)                      


 Verse
------------------------------------------------------------------
------------------------------------------------------------------
-5-5-55-5-5-555--5-5-55-5-5-555--8-8-88-8-8-888--7-7-77-7-7-777--- x2
-5-5-55-5-5-555--5-5-55-5-5-555--8-8-88-8-8-888--7-7-77-7-7-777---
-3-3-33-3-3-333--3-3-33-3-3-333--6-6-66-6-6-666--5-5-55-5-5-555---
------------------------------------------------------------------
 
                                                                     
 Bridge
-----------------------------3-------------------
-4---4---4---4---4---4---4-------4---4---4-------
---5---5---5---5---5---5---5---5---5---5---5-----
-------------------------------------------------
-------------------------------------------------
-------------------------------------------------
                                                                              
-------------------------3---3---3---3---3---3---
-4---4---4---4---4---4-----4---4---4---4---4---4-
---5---5---5---5---5---5-------------------------
-------------------------------------------------
-------------------------------------------------
-------------------------------------------------

[ Tab from: http://www.guitartabs.cc/tabs/l/lost_prophets/shinobi_vs_dragon_ninja_tab.html ]
 Chorus
    x1             x2               x1              x2           x2
------------|---------------|-----------------|------------|------------|
------------|---------------|-----------------|------------|------------|
------------|---------------|-----------------|------------|------------| x2
------------|---------------|-----------------|------------|--------10--|
------------|---------------|-----------------|-------(08)-|--8-8-8-----|
-8-8-11-10--|--8-8-8-11-10--|--8-8-8-8-11-10--|--11-11-13--|------------|
(The 08 sounds better if you let it ring)                      

                                                                              
Now play: Verse
          Bridge
          Chorus


 Interlude

Guitar 1
---------------------------------------------------------------------------
---------------------------------------------------------------------------
-8----------5---------------------------5-----------------------8----------
-8----------5---------------6-----------5-----------------------8----------
-6----------3---------------6-----------3-----------------------6----------
----------------------------4----------------------------------------------
Let them all ring

Guitar 2
----------------------------------------------------------------------------
----------------------------4---4---4---4---4---4---4---4---4---4---4---4---
------------------------------5---5---5---5---5---5---5---5---5---5---5---5-
----------------------------------------------------------------------------
----------------------------------------------------------------------------
----------------------------------------------------------------------------

Then a guitar plays E-8 a whole bunch of times with some funny effect

Then:

    (1)            (15)
------------|---------------|-
------------|---------------|-
------------|---------------|-
------------|---------------|-
------------|---------------|-
-8-8-11-10--|--8-8-8-11-10--|-

----------------
----------------
-5-5-55-5-5-5-5-
-5-5-55-5-5-5-5-
-3-3-33-3-3-3-3-
----------------
End
Comments