Lost Prophets - Rooftops Chords & Tabs

 

Rooftops Chords & Tabs

Lost Prophets Chords & Tabs

Version: 1 Type: Bass Tab 1 rating
1 star 2 stars 3 stars 4 stars 5 stars
comments

Rooftops Bass Tab

Song: Rooftops
Artist: Lostprophets
File Type: Bass Tab

SLide- (0:22)
G-----------
D-----------
A-----11s3--
E-----------

Verse- (0:22)
G-------------------------------------------------------------------------------------------------------------------------------------------------------------------
D-------------------------------------------------------------------------------------------------------------------------------------------------------------------
A-----3-3-3-3-3-3-3-3-3-3-3-3-3-3-3-3-5-5-5-5-5-5-5-5-5-5-5-5-5-5-5-5-7-7-7-7-7-7-7-7-7-7-7-7-7-7-7-7-7-10-10-10-10-10-10-10-10-10-10-10-10-10-10-10-10-10-10-10-10-
E------------------------------------------------------------------------------------------------------------------------------------------------------------------- x1

Verse Part 2- (0:33)
G-----------------------------------------------------------------------------------------------------------------------
D-----------------------------------------------------------------------------------------------------------------------
A-----3-3-3-3-3-3-3-3-3-3-3-3-3-3-3-3-5-5-5-5-5-5-5-5-5-5-5-5-5-5-5-5-7-7-7-7-7-7-7-7-7-7-7-7-7-7-7-7-7-7-7-7-7-7-7-7-7-
E----------------------------------------------------------------------------------------------------------------------- x1

Chorus- (0:44)
G-------------------------------------------------------------------------------------------
D-------------5---------5---------------------------------5---------5-----------------------
A-----3-3-3-3---3-3-3-3---3-5-5-5-5-7-7-7-7-10-10-3-3-3-3---3-3-3-3---3-5-5-5-5-7-7-7-7-----
E---------------------------------------------------------------------------------------3-3- x2

Verse x3  (1:06)

Verse Part 2 x1 (1:38)

Chorus x2 (1:49)

During Guitar solo- (2:10)
G-------------------------------------------------------------------------------------------------------------------------------------------------------------------
D-------------------------------------------------------------------------------------------------------------------------------------------------------------------
A-----3-3-3-3-3-3-3-3-3-3-3-3-3-3-3-3-5-5-5-5-5-5-5-5-5-5-5-5-5-5-5-5-7-7-7-7-7-7-7-7-7-7-7-7-7-7-7-7-7-10-10-10-10-10-10-10-10-10-10-10-10-10-10-10-10-10-10-10-10-
E------------------------------------------------------------------------------------------------------------------------------------------------------------------- x1
[ Tab from: http://www.guitartabs.cc/tabs/l/lost_prophets/rooftops_btab.html ]
G---------------------------------------------------------------------------------------------------------------------
D---------------------------------------------------------------------------------------------------------------------
A-----3-3-3-3-3-3-3-3-3-3-3-3-3-3-3-3-5-5-5-5-5-5-5-5-5-5-5-5-5-5-5-5-7-7-7-7-7-7-7-7-7-7-7-7-7-7-7-7-7-5-5-5-r-7-7-7-
E--------------------------------------------------------------------------------------------------------------------- x1

Bridge- (2:32)
G------------------------------------------------------------------------------------------------------------------------------------------
D------------------------------------------------------------------------------------------------------------------------------------------
A-----3-3-3-3-3---3-3-3-3-3---3-3-3-3-5-5-5-5-5---5-5-5-5-5---5-5-5-5-7-7-7-7-7---7-7-7-7-7---7-7-7-7-10-10-10-10-10---10-10-10-10-12-10-7-
E------------------------------------------------------------------------------------------------------------------------------------------ x2

Chorus- (2:53)
G-------------------------------------------------------------------------------------------
D-------------5---------5---------------------------------5---------5-----------------------
A-----3-3-3-3---3-3-3-3---3-5-5-5-5-7-7-7-7-10-10-3-3-3-3---3-3-3-3---3-5-5-5-5-7-7-7-7-----
E---------------------------------------------------------------------------------------3-3-

G-------------------------------------------------------------------------------------------
D-------------5---------5---------------------------------5---------5-----------------------
A-----3-3-3-3---3-3-3-3---3-5-5-5-5-7-7-7-7-10-10-3-3-3-3---3-3-3-3---3--5-5-5-r-7-7-7------
E-------------------------------------------------------------------------------------------

Last Chorus- (3:15)
G-------------------------------------------------------------------------------------------------------------------------------------
D-------------------------------------------------------------------------------------------------------------------------------------
A-----3-3-3-3-3---3-3-3-3-3---3-3-3-3-5-5-5-5-5-7-7-7-7-7-10-10-10-10-3-3-3-3-3---3-3-3-3-3---3-3-3-3-5-5-5-5-5-7-7-7-7-7-10-10-10-10-
E-------------------------------------------------------------------------------------------------------------------------------------

G-----------------------------------------------------------------------------------------------------------
D-----------------------------------------------------------------------------------------------------------
A-----3-3-3-3-3---3-3-3-3-3---3-3-3-3-5-5-5-5-5-7-7-7-7-7-10-10-10-10-3-3-3-3-3---3-3-3-3-3---3-3-3-3-5-r-7-
E----------------------------------------------------------------------------------------------------------- 


r= rest
s= slide
Comments