Lost Prophets - Last Train Home Chords & Tabs

 

Last Train Home Chords & Tabs

Lost Prophets Chords & Tabs

Version: 1 Type: Tab 5 ratings
1 star 2 stars 3 stars 4 stars 5 stars
comments

Last Train Home Tab

Atrist: Lost Prophets
Song: Last Train Home
Album: Start Something	    
Tabbed by : Patrick Barley

Guitar 1 is standard drop D tuning, Guitar 2 is one step down drop D tuning. 
````````````````````````````````````````````````````````````````````````````
intro: Guitar 1(clean)  3x
E:---------------------------------------------------------------------------------|
B:---------------------------------------------------------------------------------|
G:--------16--------16--------16--------16--------16--------16--------16--------16-|
D:-----17--------17--------17--------17--------17--------17--------17--------17----|
A:--15--------15--------15--------15-----------------------------------------------|
D:------------------------------------------14--------14--------14--------14-------|

E:---------------------------------------------------------------------------------|
B:---------------------------------------------------------------------------------|
G:--------16-------16-------16-------16-------14-------14-------14-------14--------|
D:-----17-------17-------17-------17-------17-------17-------17-------17-----------|
A:---------------------------------------------------------------------------------|
D:---0--------0--------0--------0--------0--------0--------0--------0--------------|


Guitar 2(distortion)  come in 2nd time   2x
E:---------------------------------------------------------------------------------|
B:---------------------------------------------------------------------------------|
G:---7-7--7----7-7--7----7-7--7----7-7--7------------------------------------------|
D:---7-7--7----7-7--7----7-7--7----7-7--7----4-4--4----4-4--4----4-4--4----4-4--4--|
A:---5-5--5----5-5--5----5-5--5----5-5--5----4-4--4----4-4--4----4-4--4----4-4--4--|
D:-------------------------------------------4-4--4----4-4--4----4-4--4----4-4--4--|

E:---------------------------------------------------------------------------------|
B:---------------------------------------------------------------------------------|
G:---------------------------------------------------------------------------------|
D:---2-2----2-2-2----2-2-2----2-2-2----2-2-2----2-2-2----2-2-2----2-2-2------------|
A:---2-2----2-2-2----2-2-2----2-2-2----2-2-2----2-2-2----2-2-2----2-2-2------------|
D:---2-2----2-2-2----2-2-2----2-2-2----2-2-2----2-2-2----2-2-2----2-2-2------------|


verse: guitar 1(clean)  
E:-------------------------------------------------------------------------------------|
B:-------------------------------------------------------------------------------------|
G:--16--16--16-16-16-16--16-16-16--16-16-16---16--16--16-16-16-16--16-16-16---16-16-16-|
D:--17--17--17-17-17-17--17-17-17--17-17-17---17--17--17-17-17-17--17-17-17---17-17-17-|
A:--15--15--15-15-15-15--15-15-15--15-15-15---x---x---x--x--x--x---x--x--x----x--x--x--|
D:--------------------------------------------14--14--14-14-14-14--14-14-14---14-14-14-|

E:------------------------------------------------------------------------------|------|
B:------------------------------------------------------------------------------|------|
G:--16--16-16-16-16--14-14-14--14-14-14---16--16-16-16-16--14-14-14--14-14-14---|------|  
D:--17--17-17-17-17--17-17-17--17-17-17---17--17-17-17-17--17-17-17--17-17-17---|repeat|
A:--x---x--x--x--x---x--x--x---x--x--x----x---x--x--x--x---x--x--x---x--x--x----|------|
D:--0---0--0--0--0---0--0--0---0--0--0----0---0--0--0--0---0--0--0---0--0--0----|------|
                
E:-------------------------------------------------------------------------------------|
B:-------------------------------------------------------------------------------------|
G:--16--16--16-16-16-16--19-19-19--16-16-16---16--16--16-16-16-16--19-19-19---16-16-16-|
D:--17--17--17-17-17-17--17-17-17--17-17-17---17--17--17-17-17-17--17-17-17---17-17-17-|
A:--15--15--15-15-15-15--15-15-15--15-15-15---x---x---x--x--x--x---x--x--x----x--x--x--|
D:--------------------------------------------14--14--14-14-14-14--14-14-14---14-14-14-|

E:------------------------------------------------------------------------------|------|
B:------------------------------------------------------------------------------|------|
G:--16--16-16-16-16--14-14-14--19-19-14---16--16-16-16-16--14-14-14--19-19-14---|------|  
D:--17--17-17-17-17--17-17-17--17-17-17---17--17-17-17-17--17-17-17--17-17-17---|repeat|
A:--x---x--x--x--x---x--x--x---x--x--x----x---x--x--x--x---x--x--x---x--x--x----|------|
D:--0---0--0--0--0---0--0--0---0--0--0----0---0--0--0--0---0--0--0---0--0--0----|------|

[ Tab from: http://www.guitartabs.cc/tabs/l/lost_prophets/last_train_home_tab.html ]
pre-chorus: Guitar 1(distortion) 2x
E:-------------------------------------------------------------------------------------|
B:-------------------------------------------------------------------------------------|
G:--14-14-14-14-14-14-14-14-14-14-14-14-14-14-14-16-12-12-12-12-12-12-12-12-12-12------|
D:--x--x--x--x--x--x--x--x--x--x--x--x--x--x--x--x--x--x--x--x--x--x--x--x--x--x-------|
A:--12-12-12-12-12-12-12-12-12-12-12-12-12-12-12-14-10-10-10-10-10-10-10-10-10-10------|
D:-------------------------------------------------------------------------------------|

E:-------------------------------------------------------------------------------------|
B:-------------------------------------------------------------------------------------|
G:--12-12-12-12-12-12-19-19-19-19-19-19-19-19-19-19-19-19-19-19-19-19-14-14-14-14------|
D:--x--x--x--x--x--x--x--x--x--x--x--x--x--x--x--x--x--x--x--x--x--x--x--x--x--x-------|
A:--10-10-10-10-10-10-17-17-17-17-17-17-17-17-17-17-17-17-17-17-17-17-12-12-12-12------|
D:-------------------------------------------------------------------------------------|
                                                       :after 2nd time: (clean)
E:----------------------------------------|--------------------------------------------|
B:----------------------------------------|--------------------------------------------|
G:--14-14-14-14-14-14-14-14-14-14-14-14---|---------16--------16-------16--------------|
D:--x--x--x--x--x--x--x--x--x--x--x--x----|------17--------17--------17----------------|
A:--12-12-12-12-12-12-12-12-12-12-12-12---|---15--------15--------15-------------------|
D:----------------------------------------|--------------------------------------------|

		Guitar 2: (distortion) 2x
E:---------------------------------------------------------------------------------|
B:---------------------------------------------------------------------------------|
G:--4-4-4-4-4-4-4-4-4-4-4-4-4-4-6-6-7-7-7-7-7-7-7-7-7-7-7-7-7-7-7-7----------------|
D:--4-4-4-4-4-4-4-4-4-4-4-4-4-4-6-6-7-7-7-7-7-7-7-7-7-7-7-7-7-7-7-7----------------|
A:--2-2-2-2-2-2-2-2-2-2-2-2-2-2-4-4-5-5-5-5-5-5-5-5-5-5-5-5-5-5-5-5----------------|
D:---------------------------------------------------------------------------------|

E:---------------------------------------------------------------------------------|
B:---------------------------------------------------------------------------------|
G:---------------------------------------------------------------------------------|
D:--7-7-7-7-7-7-7-7-7-7-7-7-7-7-7-7-2-2-2-2-2-2-2-2-2-2-2-2-2-2-2-2----------------|
A:--7-7-7-7-7-7-7-7-7-7-7-7-7-7-7-7-2-2-2-2-2-2-2-2-2-2-2-2-2-2-2-2----------------|
D:--7-7-7-7-7-7-7-7-7-7-7-7-7-7-7-7-2-2-2-2-2-2-2-2-2-2-2-2-2-2-2-2----------------|


chorus: same as intro, all together, 2x

verse2: same as verse 1

chorus: 

bridge:	Guitar 2(distortion)
E:----------------------------------------------------------------------------|
B:----------------------------------------------------------------------------|
G:----------------------------------------------------------------------------|
D:-0-0----0-0-0----0-0-0----0-0-0----0-0-0----0-0-0----0-0-0----0-0-0---------|
A:-0-0----0-0-0----0-0-0----0-0-0----0-0-0----0-0-0----0-0-0----0-0-0---------|
D:-0-0----0-0-0----0-0-0----0-0-0----0-0-0----0-0-0----0-0-0----0-0-0---------|

	 	Guitar 1(distortion)
E:----------------------------------------------------------------------------|
B:-----8--------8--------8--------8--------8--------8--------8--------8-------|
G:-----5--------5--------5--------5--------5--------5--------5--------5-------|
D:----------------------------------------------------------------------------|
A:----------------------------------------------------------------------------|
D:----------------------------------------------------------------------------|

		Guitar 2(distortion)
E:----------------------------------------------------------------------------|
B:----------------------------------------------------------------------------|
G:----------------------------------------------------------------------------|
D:-2-2----2-2-2----2-2-2----2-2-2----2-2-2----2-2-2----2-2-2///12-------------|
A:-2-2----2-2-2----2-2-2----2-2-2----2-2-2----2-2-2----2-2-2///12-------------|
D:-2-2----2-2-2----2-2-2----2-2-2----2-2-2----2-2-2----2-2-2///12-------------|


		Guitar 1(distortion)
E:----------------------------------------------------------------------------|
B:----------------------------------------------------------------------------|
G:-11h12---9---11---9---11---9---11---9---11---9---11---9---11/12-------------|
D:----------------------------------------------------------------------------|
A:----------------------------------------------------------------------------|
D:----------------------------------------------------------------------------|

post-bridge: Guitar 1(clean)
E:----------------------------------------------------------------------------|
B:----------------------------------------------------------------------------|
G:--------16--------16b-----16----16----16----16----14----14----14----14------|
D:-----17--------17-----------------------------------------------------------|
A:--15--------15---------15----15----15----15----15----15----15----15---------|
D:----------------------------------------------------------------------------|


chorus:  


fade out to piano...


thats it.
Comments