Lost Prophets - Last Summer Chords & Tabs

 

Last Summer Chords & Tabs

Lost Prophets Chords & Tabs

Version: 1 Type: Tab 2 ratings
1 star 2 stars 3 stars 4 stars 5 stars
comments

Last Summer Tab

   
This tab is 100% Correct. Listen For Timing

E,A,D,G,B,E

Intro Guitar 1
e|------------------------------------|
B|------------------------------------|
G|-------------16--14---------14/16---|
D|------------------------------------|
A|------------------------------------|
E|------------------------------------| x 2

Intro Guitar 2 (Plays over Guitar 1)
e|------------------------------------|
B|------------------------------------|
G|------------------------------------|
D|------------------------------------|
A|------------------------------------|
E|---12-12-12-15-14-10 ---------------|x 2 
[ Tab from: http://www.guitartabs.cc/tabs/l/lost_prophets/last_summer_tab.html ]
Verse
|----------------------------------------------------------------------------------------------------|
|----------------------------------------------------------------------------------------------------|
|----------------------------------------------------------------------------------------------------|
|-----10----10--------------5-----5-----5 --------------12------12----------------12-----12----------|
|--10----10----10---10----5----5-----5------5-------12------12------12----12---12----12-----12----12-|
|-8---------------8----3------------------3------10--------------------10---10-----------------10----|
                                                    (x4 1st chorus, x2 2nd Chorus)                                 
|------------------------------------|
|------------------------------------|
|------------------------------------|
|--10-----5------7-------------------|
|--10-----5------7-------------------|
|--8------3------5-------------------|  x2 (With Distortion let chords ring.)

Bridge

|------------------------------------|
|------------------------------------|
|------------------------------------|
|-10--10--10--10----     --9-9-9-9---|
|-10--10--10--10----     --9-9-9-9---|
|-8---8---8---8----- x4  --7-7-7-7---|   x4
                                          (Palm Muted)

Chorus 1

|----------------------------------------------------| 
|----------------------------------------------------|
|----------------------------------------------------|
|---12-12-12-12--9-9-9-9--10-10-10-10-10-10-10-10----|
|---12-12-12-12--9-9-9-9--10-10-10-10-10-10-10-10----|
|---10-10-10-10--7-7-7-7--8--8--8--8--8--8--8--8-----| x4

Chorus 2&3

|---------------------------------------------------|
|---------------------------------------------------|
|---------------------------------------------------|
|---12-12-12-12--9-9-9-9--10-10-10-10-10-10-14-14---|
|---12-12-12-12--9-9-9-9--10-10-10-10-10-10-14-14---|
|---10-10-10-10--7-7-7-7--8--8--8--8--8--8--12-12---| x4

Solo
|---------------------------15-14-----|
|-15-15-15-15----------------------15-|
|-------------14--12-12-12------------| x 3
|-------------------------------------|
|-------------------------------------|
|-------------------------------------|

|----15-14------15-14-------17-14---19-14 -----|
|---------15---------15----------15------15----|
|----------------------------------------------|
|----------------------------------------------|(Repeat Solo through third chorus on 2nd Guitar)
|----------------------------------------------|
|----------------------------------------------|

Feel free to email: jak_d_lad@hotmail.com
Comments