Lost Prophets - Kobrakai Chords & Tabs

 

Kobrakai Chords & Tabs

Lost Prophets Chords & Tabs

Version: 1 Type: Tab 1 rating
1 star 2 stars 3 stars 4 stars 5 stars
comments

Kobrakai Tab

I think that this is pretty much it, considering it's one of my first tabs, I think i 
did quite well.  Have fun with it guyz.



intro/riff 2
g------------------------------------------------------------------------------------|
d------------------------------------------------------------------------------------|
a------------------------------------------------------------------------------------|
d--8--8-89-8--8-89--6--6-68-4-4--0-3-1-----------------------------------------------|

intro 2/chorus/outro
g---------------------------|--------------------------------------------------------|
d---------------------------|--------------------------------------------------------|
a---------------------------|--------------------------------------------------------|
d--0h2-0h3-0h2h3-0h2h3-0h2--|-0h2-0h2-2h3-2h3-0h2------------------------------------|
[ Tab from: http://www.guitartabs.cc/tabs/l/lost_prophets/kobrakai_tab.html ]
verse
g------------------------------------------------------------------------------------|
d------------------------------------------------------------------------------------|
a-------------------------2h1-4-2-1--------------------------------------------------|
d--0-0-7--7h8-5-3---1-1-9----------6-5-4---------------------------------------------|

bridge
g------------------------------------------------------------------------------------|
d------------------------------------------------------------------------------------|
a----------0---1---------------------------------------------------------------------|
d--0---0-----------------------------------------------------------------------------|

riff 2
g------------------------------------------------------------------------------------|
d------------------------------------------------------------------------------------|
a-----------3h5----------------------------------------------------------------------|
d---5-5-5-5-----7-7-7-8-8-8----------------------------------------------------------|


order=
intro 1 x 2
intro 2 x 4
verse   x 4
bridge  x 3 
chorus  x 2 1/2
riff 1  x 1
chorus  x 2 1/2
riff 1  x 1
chorus  x 2 1/2
riff 1  x 1
riff 2  x 2
verse   x 4
bridge  x 3
chorus  x 2 1/2
riff 1  x 1
chorus  x 2 1/2
riff 1  x 1
chorus  x 2 1/2
riff 1  x 1
riff 2  x 2
outro   x 4



http://www.mmdownloads.cjb.net
Comments