Lost Prophets - Goodbye Tonight Chords & Tabs

 

Goodbye Tonight Chords & Tabs

Lost Prophets Chords & Tabs

Version: 1 Type: Tab 0 ratings
1 star 2 stars 3 stars 4 stars 5 stars
comments

Goodbye Tonight Tab

   
Standard Tuning: EADGBe         100% Correct



Intro/Verse part 1
Lead Guitar
|-------2------2---------2-------2--|
|-----3--3------3------3--3-------3-|
|---0--0-----0-------0--0------0----|
|-2--2-----2--2---------------------|
|------------------3--3------3--3---|
|-----------------------------------|x4

Rythym Guitar Plays over guitar 1 
(echo effect)
|-----------------------------------|
|---------7--8--------------7--8----|
|--------------7-----------------7--|
|-----------------------------------|
|-----------------------------------|
|-----------------------------------|x1

|-------------7-----------------7---|
|--------7--8--------------7--8-----|
|-----------------------------------|
|-----------------------------------|
|-----------------------------------|
|-----------------------------------|x1


|---------7--10------------7--10----|
|---7--8--------------7--8----------|
|-9----------------9----------------|
|-----------------------------------|
|-----------------------------------|
|-----------------------------------|x2



Verse part 2
(Slight Distortion)
Read carefully, Timing is Correct 
   C             D            E             G
|----------------------------------------------------------|
|----------------------------------------------------------|
|--5--5--5-5--5--7-7--7--7--7-9--9--9-9--9--12-12--12--12--|
|--5--5--5-5--5--7-7--7--7--7-9--9--9-9--9--12-12--12--12--|
|--3--3--3-3--3--5-5--5--5--5-7--7--7-7--7--10-10--10--10--|
|----------------------------------------------------------|

Chorus: 
Practically same as Verse.
Full Distortion (Rest of song distorted except 
                 when repeating previous clean riff).


Rythym Guitar
 (Let Ring)          This Part is same as Verse but with Distortion
|---------------|     |---------------------------------------|
|---------------|     |---------------------------------------|
|--5--7--9--12--|     |--5-5-55-57-7-7-7-79-9-99-912-12-12-12-|
|--5--7--9--12--|     |--5-5-55-57-7-7-7-79-9-99-912-12-12-12-|
|--3--5--7--10--|     |--3-3-33-35-5-5-5-57-7-77-710-10-10-10-|
|---------------| x2  |---------------------------------------|x2

[ Tab from: http://www.guitartabs.cc/tabs/l/lost_prophets/goodbye_tonight_tab.html ]
Lead Guitar (Distortion) Goes over 1st two bars of Rythym Guitar.
|--------------------------------------------|
|-10----------10----------10--------10-------|
|------11---------11----------11--------11---|
|----12--12-----12--12------12--12----12--12-|
|--------------------------------------------|
|--------------------------------------------|x2


Then Lead plays
|--------------------------------------------------15--14------------|
|--15--15--15--15--15--15--15--15--15--15--15--15----------15--15----|
|------------------------------------16--16--16--16--16--16--16---16-|
|----16--16--16--16--16--16--16--16----------------------------------|
|--------------------------------------------------------------------|
|--------------------------------------------------------------------|x2

This is played after the Chorus, Befrore verse starts again.
|------------------|---------------|
|------------------|---------------|
|---12--11-------11|-12--11--------|
|-----------9h12---|-------9h12----|
|------------------|---------------|
|------------------|---------------|

Bridge (2:35s)
 Rythym                        Lead
|----------------------|       |---------------------|
|----------------------|       |---------------------|
|-5--5--5-5--5--5--5-5-|       |-----11-12----11-12--|
|-5--5--5-5--5--5--5-5-|       |--9--------9---------|
|-3--3--3-3--3--3--3-3-|       |---------------------|
|----------------------|       |---------------------|

Outro
Rythym                          Lead (Several riffs,Hard to pick out)
                                Listen for timing
|----------------------|       |--15-14--15-14-etc-|-10-----10-----|-12-----12------|-15p14------|
|----------------------|       |-------------------|---------------|----------------|------------|
|-5--5--5-5--5--5--5-5-|       |-------------------|---11h12--11h12|---11h12--11h12-|------------|
|-5--5--5-5--5--5--5-5-|       |-------------------|---------------|----------------|------------|
|-3--3--3-3--3--3--3-3-|       |-------------------|---------------|----------------|------------|
|----------------------|       |-------------------|---------------|----------------|------------|

PLease rate this tab and my others.

Comments to: jak_d_lad@hotmail.com
Comments