Lost Prophets - Five Is A Four Letter Word Chords & Tabs

 

Five Is A Four Letter Word Chords & Tabs

Lost Prophets Chords & Tabs

Version: 1 Type: Tab 0 ratings
1 star 2 stars 3 stars 4 stars 5 stars
comments

Five Is A Four Letter Word Tab

Artist    - Lostprophets
Album     - thefakesoundofprogress
Song      - fiveisafourletterword
Tabbed By - Tony Howard (alostprophet@student.co.uk)

Whilst browsing the net i realised that were no tabs whatsoever for this
great new British band.  So i decided to have a go. This is my very first tab 
so sorry if there are any mistakes, but i've tested this so much i'm sure its 
pretty much perfect! :) If you do find any i would appreciate it if you could 
e-mail me! Thanks! I hope you enjoy this fantastic song and make sure to listen 
to the CD for the strum patterns!

So whack up that distortion and have fun!

----------------------------------------------------------------------------
Drop D tuning and down whole step!


Intro 1

D |-----------------------------|
A |-----------------------------|
F |-----------------------------|  X8
C |-----------------------------|
G |--3--------------------------|
C |----7-7-7-7-7-7-7-7-7-7-7-7--|


Intro 2/Chorus

D |-------------------------------------------------------------|
A |-------------------------------------------------------------|
F |--5----------------------------------------------------------|
C |--5-7-7-7-7-7-7-7-7-7-7-7-7-- X4 ---12-12-12-12-10-10-10-10--|
G |--5-7-7-7-7-7-7-7-7-7-7-7-7---------12-12-12-12-10-10-10-10--|
C |----7-7-7-7-7-7-7-7-7-7-7-7---------12-12-12-12-10-10-10-10--|

D |-----------------------------|
A |-----------------------------|
F |--5--------------------------|  X4
C |--5-7-7-7-7-7-7-7-7-7-7-7-7--| 
G |--5-7-7-7-7-7-7-7-7-7-7-7-7--|
C |----7-7-7-7-7-7-7-7-7-7-7-7--|


Verse
[ Tab from: http://www.guitartabs.cc/tabs/l/lost_prophets/five_is_a_four_letter_word_tab.html ]
D |---------------------------------------------------------------|
A |--10-10-10-10-10-10-10-10-10-10-10-10--------------------------|
F |--------------------------------------9-9-9-9-9-9-9-9-9-9-9-9--|  X2
C |---------------------------------------------------------------|
G |---------------------------------------------------------------|
C |---------------------------------------------------------------|

D |--------------------------------------15-15-15-15-15-15-10-10-10-10-10-10--|
A |--10-10-10-10-10-10-10-10-10-10-10-10--------------------------------------|
F |---------------------------------------------------------------------------|  X2
C |---------------------------------------------------------------------------|
G |---------------------------------------------------------------------------|
C |---------------------------------------------------------------------------|


Bridge 1

D |--------------------|
A |--------------------|
F |--------------------|  X2
C |--5----7----2----0--|
G |--5----7----2----0--|
C |--5----7----2----0--|


Bridge 2
When Ian sings: "Never the same to me..."

D |---------------------|
A |---------------------|
F |---------------------|  X2
C |--10----8----7----8--|
G |--10----8----7----8--|
C |--10----8----7----8--|


Fill (3:22)

D |-----------------------------|
A |-----------------------------|
F |--5--------------------------|  X4
C |--5-7-7-7-7-7-7-7-7-7-7-7-7--| 
G |--5-7-7-7-7-7-7-7-7-7-7-7-7--|
C |----7-7-7-7-7-7-7-7-7-7-7-7--|


Outro (4:11)

D |----------------------------|
A |----------------------------|
F |----------------------------|  X2
C |--5-7-7-7-7-7--5-7-7-7-7-7--| 
G |--5-7-7-7-7-7--5-7-7-7-7-7--|
C |--5-7-7-7-7-7--5-7-7-7-7-7--|


Order:

Intro 1
Intro 2
Verse
Chorus
Bridge 1
Bridge 2
Verse
Chorus
Bridge 1
Bridge 2
Fill
Bridge 1
Bridge 2
Outro

-------------------------------------------------------------------------------


Comments