Lost Prophets - Fake Sound Of Progress Chords & Tabs

 

Fake Sound Of Progress Chords & Tabs

Lost Prophets Chords & Tabs

Version: 3 Type: Tab 0 ratings
1 star 2 stars 3 stars 4 stars 5 stars
comments

Fake Sound Of Progress Tab

Song: The Fake Sound of Progress
Artist: Lost Prophets
Album: The Fake Sound of Progress
Tabbed By: Tommi S.
Tuning: One step down and drop to c

Intro:
		
1|-----------------------------------------------------------|
2|--(7)------------------------------------------------------|
3|------------(7)-----------(7)-----------------(7)----------|  Guitar 1
4|-------------------------------------(7)--------------(7)--|
5|-----------------------------------------------------------|
6|-----------------------------------------------------------|
		
1|-------0--2--------0--2--------0--2--------0-—2--|
2|-------------------------------------------------|
3|---4-----------6-----------0-----------2---------|  Guitar 2
4|-------------------------------------------------|
5|-------------------------------------------------|
6|-------------------------------------------------|

Fill 1

1|---------------------------------------|
2|---------------------------------------|
3|---14p11---14p11—-11/16--14--11—-11\---|
4|---------------------------------------|
5|---------------------------------------|
6|---------------------------------------|

Chorus w/intro

1|-------------------------------------------------------------------|
2|-------------------------------------------------------------------|
3|-------------------------------------------------------------------|
4|---4-----6-----0-----2-----4-----6-----0-----2---------------------|
5|---4-----6-----0-----2-----4-----6-----0-----2---2--2--2--2--2--2--|
6|---4-----6-----0-----2-----4-----6-----0-----2---2--2--2—-2--2--2--|
pm                                                 .  .  .  .  .  . 

1|-----------------------------------------------------------|
2|-----------------------------------------------------------|
3|-----------------------------------------------------------|
4|---4-----6-----0-----2-----4-----6-----0-----2----------4--|
5|---4-----6-----0-----2-----4-----6-----0-----2---2--2---4--|
6|---4-----6-----0-----2-----4-----6-----0-----2---2--2---4--|
pm                                                 .  .


Verse w/delay

1|--9--9----9--9----7--7----7—-7-----7---7-----7---7----7--7----12—-7---|
2|--7--7----7--7----9--9----9—-9----10--10----10--10----7--7------------|
3|--9--9----9--9----9--9----9—-9-----9---9-----9---9----9--9------------|
4|----------------------------------------------------------------------|
5|----------------------------------------------------------------------|
6|----------------------------------------------------------------------|



Pre-Chorus

1|---------9--------------9-----|
2|------7-----7--------7-----7--|
3|--9--------------9------------|  x8
4|------------------------------|  
5|------------------------------|
6|------------------------------|

Then

1|--------------------------|
2|--------------------------|
3|--------------------------|
4|--4--4--4--4--4--4--4—-4--|
5|--4--4--4--4--4--4--4--4--|
6|--4--4--4--4--4--4--4--4--|
pm  .  .  .  .  .  .  .  .

Bridge:
[ Tab from: http://www.guitartabs.cc/tabs/l/lost_prophets/fake_sound_of_progress_tab_ver_3.html ]
1|---------9--------------9-----|
2|------7-----7--------7-----7--|
3|--9--------------9------------|
4|------------------------------|  
5|------------------------------|
6|------------------------------|

And the other guitar plays this

1|--9---9---7---7—---7---7-----7---7---7---7--|
2|--7---7---9---9—--10--10----10--10---7---7--|
3|--9---9---9---9—---9---9-----9---9---9---9--|
4|--------------------------------------------|
5|--------------------------------------------|
6|--------------------------------------------|

Then couple of times

1|----------------------------------------------------------------------------|
2|----------------------------------------------------------------------------|
3|----------------------------------------------------------------------------|
4|--4--4--4--4--4--x--4--x--4--x--4--4----4--4--4--4--4--x--4--x--4--x--4—-4--|
5|--4--4--4--4--4--x--4--x--4--x--4--4----2--2--2--2--2--x--2--x--2--x--2—-2--|
6|--4--4--4--4--4--x--4--x--4--x--4--4----2--2--2--2--2--x--2--x--2--x--2—-2--|

1|-----------------------------------------------------------------------------|
2|-----------------------------------------------------------------------------|
3|-----------------------------------------------------------------------------|
4|--6--6--6--6--6--x--6--x--6--x--6--6---5--5--5--5--5—-4—-4—-4—-4—-4—-3—-3—-3-|
5|--4--4--4--4--4--x--4--x--4--x--4—-4---5--5--5--5--5--4—-4—-4—-4—-4—-3—-3—-3-|
6|--6--6--6--6--6--x--6--x--6--x--6--6---5--5--5--5--5--4—-4—-4—-4—-4—-3—-3—-3-|

1|-----------------------|
2|-----------------------|
3|-----------------------|
4|--4-----6-----0-----2--|  x3  w/pre-chorus
5|--4-----6-----0-----2--|
6|--4-----6-----0-----2--|


Fourth time

1|--------------------------------------------|
2|--------------------------------------------|
3|--------------------------------------------|
4|--4-----6-----0-----------------------------|
5|--4-----6-----0-----2--2--2--2--2--2--2--2--|
6|--4-----6-----0-----2--2--2--2--2--2--2--2--|
pm                    .  .  .  .  .  .  .  .

Then again chorus

1|-------------------------------------------------------------------|
2|-------------------------------------------------------------------|
3|-------------------------------------------------------------------|
4|---4-----6-----0-----2-----4-----6-----0-----2---------------------|
5|---4-----6-----0-----2-----4-----6-----0-----2---2--2--2--2--2--2--|
6|---4-----6-----0-----2-----4-----6-----0-----2---2--2--2—-2--2--2--|
pm                                                 .  .  .  .  .  . 

1|-----------------------------------------------------------|
2|-----------------------------------------------------------|
3|-----------------------------------------------------------|
4|---4-----6-----0-----2-----4-----6-----0-----2----------4--|
5|---4-----6-----0-----2-----4-----6-----0-----2---2--2---4--|
6|---4-----6-----0-----2-----4-----6-----0-----2---2--2---4--|
pm                                                 .  .

Then outro

1|---------9--------------9-----|
2|------7-----7--------7-----7--|
3|--9--------------9------------|  x8
4|------------------------------|  
5|------------------------------|
6|------------------------------|

1|----------|
2|----------|
3|----------|
4|--4----0--|
5|--4----0--|
6|--4----0--|
Comments